MUZBANK


МУЗЫКАЛЬНО-ИНФОРМАЦИОННЫЙ БАНК





LLimp Bizkit • Stuck (аккорды и текст - chords & lyrics)


440

Print

Видео «Stuck (Limp Bizkit)»

Видео клипы к песне подбираются автоматически сайтом youtube. Возможны некоторые несоответствия клипов песне.

↑ Спрятать рекламу ↑






 


Intro- Bass Transcribed for Guitar
C#|------------------------------------|
G#|------------------------------------|
B |------------------------------------|
E |-----------5/(4)------------5^(1/4)-|
F#|------3----------------3------------|
C#|-2----------------2-----------------|

Verse- play clean w/ delay
C#|------------------16----16--16--16---17---17--17--17--|
G#|------------------------------------------------------|
B |-13---------------------------------------------------|
E |------------------------------------------------------|
F#|-15---------------------------------------------------|
C#|------------------------------------------------------|

Chorus 1- play with distortion
C#|--------------------------------------------|
G#|--------------------------------------------|
B |--------------------------------------------|
E |-2-2-----------5-----6-----5-----6-----5--5-|
F#|-2-2-----------5-----6-----5-----6-----5--5-|
C#|-0-0-----------3--0--4--0--3--0--4--0--3--3-|
                       
Chorus 2- play with distortion
C#|------------------------------|
G#|------------------------------|
B |------------------------------|
E |-5-----6-----5-----6-----5--6-|
F#|-5-----6-----5-----6-----5--6-|
C#|-3--0--4--0--3--0--4--0--3--4-|

Chorus 3- play with distortion
C#|-------------------------------|
G#|-------------------------------|
B |-------------------------------|
E |-----4--3----------------------|
F#|-----2--1-----5-----6----5/(6)-|
C#|-0-0------0-0-3--0--4 

Тональность:

Это должно быть в ТОП-листе! - Топ-лист композиций



Назад
Рекомендуем посмотреть другие песни исполнителя «Limp Bizkit»:

  • Комменты Fb ()
  • Комменты ВК



Добавить в Избранное Браузера
Сохранить здесь Очистить


x

0


+
-

+
-

-

Авторизация





Зарегистрироваться

M

Дата и время

  • 11:45:57
     

Социальные ссылки


Наши приложения

  • Muzbank App Play Market
  • Muzbank Amazon App