MUZBANK


МУЗЫКАЛЬНО-ИНФОРМАЦИОННЫЙ БАНК





LLimp Bizkit • Take A Look Around (аккорды и текст - chords & lyrics)


486

Print

Видео «Take A Look Around (Limp Bizkit)»

Видео клипы к песне подбираются автоматически сайтом youtube. Возможны некоторые несоответствия клипов песне.

↑ Спрятать рекламу ↑






 


intro:
                           (Fill.1)
(Gtr.1)(Acous.)
   Em             G             C                D
1-----------------------------------|
2-----------------------------------|
3|----------0-2^0-------------0-2^0-------------|
4|-2-2-2--2-------2-2-2-2-0-1-|2-2-2-2--2-------2-2-2-2-0-1-|
5-----------------------------------|
6-----------------------------------|
   Em                G             C                D
1---------------------------------------|
2---------------------------------------|
3-0-2^0-------------0-2^0---------------|
4|-2-2-2-2--2-------2-2-2-2-0-1-|2-2-2-2--2-------2-2-2-2-0-1-2-|
5---------------------------------------|
6---------------------------------------|

                          (Fill.2)

(Gtr.1)(Acous.)
  Em              G              C                D
1-----------------------------------|
2-----------------------------------|
3|----------0-2^0-------------0-2^0-------------|
4|-2-2-2--2-------2-2-2-2-0-1-|2-2-2-2--2-------2-2-2-2-0-1-|
5-----------------------------------|
6-----------------------------------|
Bass & Sintezator
3-----------------|--3----------------5---------|
4|-2--------------5-----------------------------|

(Gtr.1)(Acous.)
  Em                G              C                D
1---------------------------------------|
2---------------------------------------|
3-0-2^0-------------0-2^0---------------|
4|-2-2-2-2--2-------2-2-2-2-0-1-|2-2-2-2--2-------2-2-2-2-0-1-2-|
5---------------------------------------|
6---------------------------------------|
Bass & Sintezator
3-------------------|--3----------------5-----------|
4|-2----------------5-------------------------------|

Verse.1(Fill.3)

(Gtr.1)(Acous.)
          Em
           All the teachin 

Тональность:

Это должно быть в ТОП-листе! - Топ-лист композиций



Назад
Рекомендуем посмотреть другие песни исполнителя «Limp Bizkit»:

  • Комменты Fb ()
  • Комменты ВК



Добавить в Избранное Браузера
Сохранить здесь Очистить


x

0


+
-

+
-

-

Авторизация





Зарегистрироваться

M

Дата и время

  • 02:44:08
     

Социальные ссылки


Наши приложения

  • Muzbank App Play Market
  • Muzbank Amazon App