MUZBANK


МУЗЫКАЛЬНО-ИНФОРМАЦИОННЫЙ БАНК





LLinkin Park • Easier To Run (аккорды и текст - chords & lyrics)


622

Print

Видео «Easier To Run (Linkin Park)»

Видео клипы к песне подбираются автоматически сайтом youtube. Возможны некоторые несоответствия клипов песне.

↑ Спрятать рекламу ↑






Intro:
E|-------------------|
B|-5-7-8~-8-10-8-7~~-|  x4
G|-------------------|
D|-------------------|
A|-------------------|
E|-------------------|

Intro,Chorus (Guitar with distortion)

   Em Cm Dm Hm
E|-7--8--10-7-|
B|-7--8--10-7-|
G|-9--8--10-7-|
D|-9--10-12-9-|
A|-7--10-12-9-|
E|-7--8--10-7-|

вообще в куплете гитары я не слышал - но по теме можете играть
вступление без дисторшена

и где-то на 2.18 минуте песни примерно это (interlude)

   Cm Dm Em Hm
E|-8--10-7--7-|
B|-8--10-7--7-|
G|-8--10-9--7-|
D|-10-12-9--9-|
A|-10-12-7--9-|
E|-8--10-7--7-|

Тональность:

Это должно быть в ТОП-листе! - Топ-лист композиций



Назад
Рекомендуем посмотреть другие песни исполнителя «Linkin Park»:

  • Комменты Fb ()
  • Комменты ВК



Добавить в Избранное Браузера
Сохранить здесь Очистить


x

0


+
-

+
-

-

Авторизация





Зарегистрироваться

M

Дата и время

  • 16:46:50
     

Социальные ссылки


Наши приложения

  • Muzbank App Play Market
  • Muzbank Amazon App