MUZBANK


МУЗЫКАЛЬНО-ИНФОРМАЦИОННЫЙ БАНК





LLinkin Park • Numb (аккорды и текст - chords & lyrics)


1257

Print

Видео «Numb (Linkin Park)»

Видео клипы к песне подбираются автоматически сайтом youtube. Возможны некоторые несоответствия клипов песне.

↑ Спрятать рекламу ↑






 


Linkin Park – Numb Encore.

Аккорды: F#m,  D,  A,  E. 
(Они повторяются на протяжении всей песни.)

Вступление:

1:    -0-254-0-540-0-254-0-540-0-
2:    2-2----2-2----2-2----2-2----2-2-  
3:    - - - - - - - - - - - - - - - - - - 
4:    - - - - - - - - - - - - - - - - - -
5:    - - - - - - - - - - - - - - - - - - 
6:    - - - - - - - - - - - - - - - - - - 

Куплет:

1:   ----------------------------- 
2:   22223220-220-0-220-0-  
3:   ------------2----2-------2-
4:   -----------------------------                                  
5:   -----------------------------                                
6:   -----------------------------                                                  

1:   ----------------------------- 
2:   22223220-220-0-220-0-2222227752377523------- 
3:   ------------2----2-------2--------------------------0000-
4:   -------------------------------------------------------------                                  
5:   -------------------------------------------------------------                                
6:   -------------------------------------------------------------                                                  

Припев:

1:  22202222402202222022220222240220222202
2:  ---------------------------------------------------------
3:  ---------------------------------------------------------
4:  ---------------------------------------------------------
5:  ---------------------------------------------------------
6:  ---------------------------------------------------------

Куплет:

1:  2222020002000------------------------------------------------                                                                               
2:  --------------------223202222223220---220-0220-02222--                                                                 
3:  -------------------------------------------2------2-----2---------                                                            
4:  --------------------------------------------------------------------                                                                   
5:  --------------------------------------------------------------------                                                                   
6:  --------------------------------------------------------------------                                                                          

1:  ------------------0---------------5454-------
2:  227752377523-2277523------------------
3:  -----------------------------------------------
4:  -----------------------------------------------
5:  -----------------------------------------------
6:  -----------------------------------------------

Припев:

1:  22202222402202222022220222240220222202
2:  ---------------------------------------------------------
3:  ---------------------------------------------------------
4:  ---------------------------------------------------------
5:  ---------------------------------------------------------
6:  ---------------------------------------------------------

Вступление:

1:    -0-254-0-540-0-254-0-540-0-
2:    2-2----2-2----2-2----2-2----2-2-  
3:    - - - - - - - - - - - - - - - - - - 
4:    - - - - - - - - - - - - - - - - - -
5:    - - - - - - - - - - - - - - - - - - 
6:    - - - - - - - - - - - - - - - - - -
 

Тональность:

Это должно быть в ТОП-листе! - Топ-лист композиций



Назад
Рекомендуем посмотреть другие песни исполнителя «Linkin Park»:

  • Комменты Fb ()
  • Комменты ВК



Добавить в Избранное Браузера
Сохранить здесь Очистить


x

0


+
-

+
-

-

Авторизация





Зарегистрироваться

M

Дата и время

  • 16:19:40
     

Социальные ссылки


Наши приложения

  • Muzbank App Play Market
  • Muzbank Amazon App