MUZBANK


МУЗЫКАЛЬНО-ИНФОРМАЦИОННЫЙ БАНК





LLinkin Park • One Step Closer (аккорды и текст - chords & lyrics)


392

Print

Видео «One Step Closer (Linkin Park)»

Видео клипы к песне подбираются автоматически сайтом youtube. Возможны некоторые несоответствия клипов песне.

↑ Спрятать рекламу ↑






 


Intro:
e------------------------
b------------------------
G------------------------
D------------------------
A----5--0--7-------------
E-0---------8--7--0--3---

 Then:

e-------------------
b-------------------
G--------9--------5-
D--0-0-0-9--------5-
A--0-0-0-7-8-7--0-3-
E--0-0-0---8-7--0---

 Break:

G---------
D-5-5-xx-x
A-5-5-xx-x
E-5-5-xx-x


 

Тональность:

Это должно быть в ТОП-листе! - Топ-лист композиций



Назад
Рекомендуем посмотреть другие песни исполнителя «Linkin Park»:

  • Комменты Fb ()
  • Комменты ВК



Добавить в Избранное Браузера
Сохранить здесь Очистить


x

0


+
-

+
-

-

Авторизация





Зарегистрироваться

M

Дата и время

  • 23:05:49
     

Социальные ссылки


Наши приложения

  • Muzbank App Play Market
  • Muzbank Amazon App