MUZBANK


МУЗЫКАЛЬНО-ИНФОРМАЦИОННЫЙ БАНК





LLinkin Park • Runaway (аккорды и текст - chords & lyrics)


446

Print

Видео «Runaway (Linkin Park)»

Видео клипы к песне подбираются автоматически сайтом youtube. Возможны некоторые несоответствия клипов песне.

↑ Спрятать рекламу ↑






 


Intro:
E------------
B-------------
G-------------
D|-------0---------------
A|--2---------------0----
E----3--------

E------------
B-------------
G|---4---7------------------
D|---4---7-----5----7-------
A|---2---5-----5----7------
E----3---5-----

 

Тональность:

Это должно быть в ТОП-листе! - Топ-лист композиций



Назад
Рекомендуем посмотреть другие песни исполнителя «Linkin Park»:

  • Комменты Fb ()
  • Комменты ВК



Добавить в Избранное Браузера
Сохранить здесь Очистить


x

0


+
-

+
-

-

Авторизация





Зарегистрироваться

M

Дата и время

  • 09:24:09
     

Социальные ссылки


Наши приложения

  • Muzbank App Play Market
  • Muzbank Amazon App