MUZBANK


МУЗЫКАЛЬНО-ИНФОРМАЦИОННЫЙ БАНК





LLive • Shit Towne (аккорды и текст - chords & lyrics)


452

Print

Видео «Shit Towne (Live)»

Видео клипы к песне подбираются автоматически сайтом youtube. Возможны некоторые несоответствия клипов песне.

↑ Спрятать рекламу ↑





 


Artist: Live
Song: Shit Towne
Album: Selling the Drama
Tabbed by: Renato Gehringer
_______________________________________
 
G|---------------------------------------------------------------------------
D|---------------------------------------------------------------------------
A|------------1----------1----1------------------------1----------1----1---
E|-2-----4----------4----------------2---------4------------4---------------
 
G|-------------------------------------------------------------------------
D|-------------------------------------------------------------------------
A|--------------4-------------------4------------------4-------2-----------
E|--2----2---------------2---2--------------2--2---------------------------
 
 
G|----------------------------------------------------------------------
D|----------------------------------------------------------------------
A|-----------------------------------------------------------------------
E|-----2--2-----44------6-------88--99 

Тональность:

Это должно быть в ТОП-листе! - Топ-лист композиций



Назад
Рекомендуем посмотреть другие песни исполнителя «Live»:

  • Комменты Fb ()
  • Комменты ВК



Добавить в Избранное Браузера
Сохранить здесь Очистить


x

0


+
-

+
-

-

Авторизация





Зарегистрироваться

M

Дата и время

  • 15:59:13
     

Социальные ссылки


Наши приложения

  • Muzbank App Play Market
  • Muzbank Amazon App