MUZBANK


МУЗЫКАЛЬНО-ИНФОРМАЦИОННЫЙ БАНК





LLost Prophets • Kobrakai (аккорды и текст - chords & lyrics)


305

Print

Видео «Kobrakai (Lost Prophets)»

Видео клипы к песне подбираются автоматически сайтом youtube. Возможны некоторые несоответствия клипов песне.

↑ Спрятать рекламу ↑






 


Artist-Lostprophets
Song-Kobrakai
Instrument-Guitar
Tabbed-Ragbagger

Intro guitar 1 Riff 1

With heavy distortion. Play 3 times.

|--------19----19----19----19----20----19----19----19----19----20----17----
|-----------17----17----17-------------------17----17----17----------------
|--------------------------------------------------------------------------
|--------------------------------------------------------------------------
|--------------------------------------------------------------------------
|--------------------------------------------------------------------------

|--------15----15----15----15----------------------------------------------
|-----------15----15----15----15-------------------------------------------
|--------------------------------------------------------------------------
|--------------------------------------------------------------------------
|--------------------------------------------------------------------------
|--------------------------------------------------------------------------

Intro guitar 1 Riff 1 end variation. Play this to complete intro Riff 1.

|--------19----19----19----19----20----19----19----19----19----20----17----
|-----------17----17----17-------------------17----17----17----------------
|--------------------------------------------------------------------------
|--------------------------------------------------------------------------
|--------------------------------------------------------------------------
|--------------------------------------------------------------------------

|--------15----15----19----15----------------------------------------------
|-----------15----15----15----15-------------------------------------------
|--------------------------------------------------------------------------
|--------------------------------------------------------------------------
|--------------------------------------------------------------------------
|--------------------------------------------------------------------------

Intro guitar 2 Riff 1
With heavy distortion.

|--------------------------------------------------------------------------
|--------------------------------------------------------------------------
|--------------------------------------------------------------------------
|--------2--------2--2--3----2--------2--2--2----2--------2--2--2----2-----
|--------2--------2--2--2----2--------2--2--2----2--------2--2--2----2-----
|--------2--------2--2--2----2--------2--2--2----2--------2--2--2----2-----

P.M. - - - - P.M. - - - - P.M. - - - - P.M. - - P.M. - - - -

|--------------------------------------------------------------------------
|--------------------------------------------------------------------------
|--------------------------------------------------------------------------
|--------2--2--3----2--------2--2--3----2--------0--3--2-------------------
|--------2--2--3----2--------2--2--3----2--------0--3--2-------------------
|--------2--2--3----2--------2--2--3----2--------0--3--2-------------------

P.M. - - - - P.M. - - - - P.M. - - - -

Intro guitar 1 Riff 2

With heavy distortion.

|--------19--19--19--19--20--19--19--19--19--19--20--19--17--17--17--17--1
|-----------17--17--17--17------------17--17--17--17------------15--15--15-
|--------------------------------------------------------------------------
|--------------------------------------------------------------------------
|--------------------------------------------------------------------------
|--------------------------------------------------------------------------

|--------19--19--19--19--20--19--19--19--19--19--20--19--17--17--17--17--17
|-----------17--17--17--17------------17--17--17--17------------15--15--15-
|--------------------------------------------------------------------------
|--------------------------------------------------------------------------
|--------------------------------------------------------------------------
|--------------------------------------------------------------------------


Intro guitar 2 Riff 2

With heavy distortion. Played 2 times.

|--------------------------------------------------------------------------
|--------------------------------------------------------------------------
|--------------------------------------------------------------------------
|--------------------------------------------------------------------------
|--------0--2----0--2----0--2------0--2------0--2--------0--2----0--2----0-
|--------0--2----0--2----0--2------0--2------0--2--------0--2----0--2----0-

H.O. H.O. H.O. B.U. H.O. B.U. H.O. H.O. H.O. H.O. H.O. B.U. H.O.

|--------------------------------------------------------------------------
|--------------------------------------------------------------------------
|--------------------------------------------------------------------------
|--------------------------------------------------------------------------
|--------0--2----0--2----0--2------0--2------0--2--------0--2----0--2----0-
|--------0--2----0--2----0--2------0--2------0--2--------0--2----0--2----0-

H.O. H.O. H.O. B.U. H.O. B.U. H.O. H.O. H.O. H.O. H.O. B.U. H.O.


Neck and bridge pickups with clean tone.

|---------------10----10-----------12-----------15----12----10--------12---|--------12------------------12-----------12-------------------12----------|-------12----------------------------12-9---------------------------------|--------------------------------------------------------------------------
|--------------------------------------------------------------------------
|--------------------------------------------------------------------------

|----------------------------------------------10----10-----------12-------
|------------------------------------12---------------------12-------------
|---------9--10--9----9 

Тональность:

Это должно быть в ТОП-листе! - Топ-лист композиций



Назад
Рекомендуем посмотреть другие песни исполнителя «Lost Prophets»:

  • Комменты Fb ()
  • Комменты ВК



Добавить в Избранное Браузера
Сохранить здесь Очистить


x

0


+
-

+
-

-

Авторизация





Зарегистрироваться

M

Дата и время

  • 09:03:18
     

Социальные ссылки


Наши приложения

  • Muzbank App Play Market
  • Muzbank Amazon App