MUZBANK


МУЗЫКАЛЬНО-ИНФОРМАЦИОННЫЙ БАНК





LLost Prophets • The Fake Sound Of Progress Live (аккорды и текст - chords & lyrics)


556

Print

Видео «The Fake Sound Of Progress Live (Lost Prophets)»

Видео клипы к песне подбираются автоматически сайтом youtube. Возможны некоторые несоответствия клипов песне.

↑ Спрятать рекламу ↑





 


artista-Lostprophets
song-the fake sound of progress
tab by Manuel (shinobi_89@hotmail.com)



distorsion
D|----------16-16-----------------|
A|-----------------16-16--16------|
F|--------------------------------|
C|--------------------------------|
G|--------------------------------|
C|--------------------------------|

 gtr.1
D|----------0--2-------0--2-------0--2-------0--2|
A|-----------------------------------------------|
F|-----------------------------------------------|
C|-----------------------------------------------|
G|-----------------------------------------------|
C|----4------------6---------0-----------2-------|

coro|distorsion
D|-------------------------|---------------------------|
A|-------------------------|---------------------------|
F|-------------------------|---------------------------|
C|-----4-----6----0-----2--|--4-----6----0---222-------|
G|-----4-----6----0-----2--|--4-----6----0---222--pm---|
C|-----4-----6----0-----2--|--4-----6----0---222-------|

verso        tremolo
D|--9-----9---7---11---9---7--------------|
A|--7-----8---9---7----9---7--------------|
F|--9-----7---9--------7---7--------------|
C|----------------------------------------|
G|----------------------------------------|
C|----------------------------------------|

gtr.2
D|-------9--------9------9------9-----9----------|
A|-----7-------7-------7------7-----7------------|
F|---9------9-------9------9------9--------------|
C|-----------------------------------------------|
G|-----------------------------------------------|
C|-----------------------------------------------|

Repetir verso y coro

gtr.2
D|-------9--------9------9------9-----9----------|
A|-----7-------7-------7------7-----7------------|
F|---9------9-------9------9------9--------------|
C|-----------------------------------------------|
G|-----------------------------------------------|
C|-----------------------------------------------|

Gtr.1
D|--------------------------------------------------|
A|----------9--10 

Тональность:

Это должно быть в ТОП-листе! - Топ-лист композиций



Назад
Рекомендуем посмотреть другие песни исполнителя «Lost Prophets»:

  • Комменты Fb ()
  • Комменты ВК



Добавить в Избранное Браузера
Сохранить здесь Очистить


x

0


+
-

+
-

-

Авторизация





Зарегистрироваться

M

Дата и время

  • 10:26:15
     

Социальные ссылки


Наши приложения

  • Muzbank App Play Market
  • Muzbank Amazon App