MUZBANK


МУЗЫКАЛЬНО-ИНФОРМАЦИОННЫЙ БАНК





LLuca Turilli • Where Heroes Lie (аккорды и текст - chords & lyrics)


400

Print

Видео «Where Heroes Lie (Luca Turilli)»

Видео клипы к песне подбираются автоматически сайтом youtube. Возможны некоторые несоответствия клипов песне.

↑ Спрятать рекламу ↑





 


*******************************************************************
* LUCA TURILLI - WHERE HEROES LIE (From: King Of Nordic Twilight) *
*******************************************************************
 Music and Words By: Luca Turilli

Transcribed By: Niclas Buss (21-22.12.1999)
email: Nbjbuss@hotmail.com

Please mail me if you can find mistakes!

-----------------------------------------

Normal Tuning

  Intro (Gtr.1)
E----------------------------------------------------------------------------------|
B----------------------------------------------------------------------------------|
G----------------------------------------------------------------------------------|
D--------------------------------------A.H...|-------------------------------------|
A--------6-8-9-------6-8-9-------6-8-9--9~-8~----------6-8-9-------6-8-9-------6-8-|
E--6-8-9-------6-8-9-------6-8-9-----------------6-8-9-------6-8-9-------6-8-9-----|

E----------------------------------------------------------------------------------|
B----------------------------------------------------------------------------------|
G----------------------------------------------------------------------------------|
D--------------------------------------------A.H...|-------------------------------|
A-9------------6-8-9-------6-8-9-------6-8-9--9~-8~----------6-8-9-------6-8-9----8|
E---4~--6-8-9-------6-8-9-------6-8-9-----------------6-8-9-------6-8-9-------4--|

		  Intro (Gtr.2)
E----------------------------------------------------------------------------------|
B---------------|------------------------------------------------------------------|
G---------------|------------------------------------------------------------------|
D---------------|-----------------11-10-------------------------------------11-10--|
A-6-4-----------|---8---8---8---9--8---8---8---8---6----8---8---8---9--8--|
E-----8-6-4/6~------6---6---6----------6---6---6---4----6---6---6---------|

			Guitar Solo 1 (Sascha)
E------------------------16~--b(18)~~----16b(18)r16p13--------------------------18-|
B---------------------|--------------------------------16b(18)r16p14--16-r-(18)----|
G---------------------|------------------------------------------------------------|
D---------------------|------------------------------------------------------------|
A--8---8---6----8---|------------------------------------------------------------|
E--6---6---4----6----------------------------------------------------------------|

E------16---------------------------------------------------13-----18----20b(21)~--|
B--18r----18p16-18-16p14-16-14-13-14----13-14--------/14---------------------------|
G------------------------------------15-------13-15------15----15-----15-----------|
D----------------------------------------------------------------------------------|
A----------------------------------------------------------------------------------|
E----------------------------------------------------------------------------------|

E-r20-p18--------------------------------------------------------------------------|
B---------16b(17 

Тональность:

Это должно быть в ТОП-листе! - Топ-лист композиций



Назад
Рекомендуем посмотреть другие песни исполнителя «Luca Turilli»:

  • Комменты Fb ()
  • Комменты ВК



Добавить в Избранное Браузера
Сохранить здесь Очистить


x

0


+
-

+
-

-

Авторизация





Зарегистрироваться

M

Дата и время

  • 18:25:30
     

Социальные ссылки


Наши приложения

  • Muzbank App Play Market
  • Muzbank Amazon App