MUZBANK


МУЗЫКАЛЬНО-ИНФОРМАЦИОННЫЙ БАНК





LLynyrd Skynyrd • Simple Man (аккорды и текст - chords & lyrics)


663

Print

Видео «Simple Man (Lynyrd Skynyrd)»

Видео клипы к песне подбираются автоматически сайтом youtube. Возможны некоторые несоответствия клипов песне.

↑ Спрятать рекламу ↑






 


Lynard Skynard - Simple Man

Tabbed By: Matt Lenda

this is a classic song by a classic group.  some great guitar work as well.
as of now i only have the intro, verse, chorus, and interlude.  the guitar solo is
traking some time.  most likely this is in the book.

ALL GUITARS TUNE DOWN 1/2 STEP (eb  Bb  Gb  Db  Ab  Eb)

Intro Part 1 (play x2)
Clean Electric Guitar w/Reverb
(Key Stated Above Tab)
 
  C                   G               Amin
|-------------------------------------------------------------3-----------
|-------------1-------------------------------1---------1-------1---1-----
|-------0-------0---0---------0---------2-------2---2-----2-------2-------
|---------2-------2-----0-------0---0-----2-------2---------2-------------
|-0-2-3-----3-------------2-------2---0-----0---------0-------------------
|---------------------3-----3---------------------------------------------

Intro Part 2 (play x2)
Same Guitar as Intro Part 1

  Am                              C               G                 Am
|-----------------------3-------------------------------------------------
|---------------1-----------1-----------1---------------------------------
|-------2-----------2---------------0-------0-----------0-----------2-----
|-----------2---------2-----------------------------0-------0---0-----2---
|-0-3-0-------0---------------0-2-3---3-------3-2-------------2---0-----0-
|-------------------------------------------------3---3-------------------

                      Words (at end of this riff):  

Тональность:

Это должно быть в ТОП-листе! - Топ-лист композиций



Назад
Рекомендуем посмотреть другие песни исполнителя «Lynyrd Skynyrd»:

  • Комменты Fb ()
  • Комменты ВК



Добавить в Избранное Браузера
Сохранить здесь Очистить


x

0


+
-

+
-

-

Авторизация





Зарегистрироваться

M

Дата и время

  • 01:06:01
     

Социальные ссылки


Наши приложения

  • Muzbank App Play Market
  • Muzbank Amazon App