MUZBANK


МУЗЫКАЛЬНО-ИНФОРМАЦИОННЫЙ БАНК





MMachine Head • The Blood The Sweat The Tears (аккорды и текст - chords & lyrics)


415

Print

Видео «The Blood The Sweat The Tears (Machine Head)»

Видео клипы к песне подбираются автоматически сайтом youtube. Возможны некоторые несоответствия клипов песне.

↑ Спрятать рекламу ↑





 


Machine Head- The Blood, The Sweat, The Tears
Tabbed by Darklighter

Tuning low to high: B, F#, B, E, G#, C#


|--------------|
|--0-----------|
|--0-----------|
|--0-----------|
|--------------|
|--------------|

Riff 1 (chorus riff)
|------------------------------------------|
|------------------------------------------|
|------------------------------------------|
|--------------------------------------4---|
|--------------------------------------4---|
|--0-0-0---0-0-1---0-0-0---0-0-1-------4---|
 P.m -     - -     - -     - -

|----------------------------------------|
|----------------------------------------|
|----------------------------------------|
|-------------------------------------6--|
|-------------------------------------6--|
|0-0-0---0-0-1----0-0-0---0-0-1-------6--|
 p.m -   - -      - -     - -


|--------------|
|--------------|
|--------------|
|--6--6--6--6--|
|--6--6--6--6--|
|--6--6--6--6--|


Verse pt 1

|-------------------|
|-------------------|
|-------------------|
|--1-1-1-1-1-1-1-1--|
|--1-1-1-1-1-1-1-1--|
|--1-1-1-1-1-1-1-1--|
 p.m - - - - - - -

Verse pt 2

|-----------------------------------|
|-----------------------------------|
|-----------5--------5-----8-8-8-8--|
|--0--1--0--5--0--1--5--0-----------|
|--0--1--0--3--0--1--3--0--6-6-6-6--|
|--0--1--0-----0--1-----0-----------|


Pre-chorus 1

Strumming
|-------------------------|
|-------------------------|
|--5----------------------|
|------------------6------|
|--3----------------------|
|------------------6------|


Verse pt 2 x2

Pre-chorus 2

Strumming
|--------------------------|
|--------------------------|
|--5---------------8-------|
|--------------------------|
|--3---------------6-------|
|--------------------------|
with pre-chorus 1


Chorus x2

Verse pt1

Verse pt2

Pre-chorus 3

Strumming
|-----------------------------|
|-----------------------------|
|--5---------8--10--12--13----|
|-----------------------------|
|--3---------6---8--10--11----|
|-----------------------------|
with pre-chorus 1

Chorus x2

Break

|-----------------------------|
|-----------------------------|
|-----------5--------5--------|
|--0--1--0--5--0--1--5--0-----|
|--0--1--0--3--0--1--3--0--5^-|
|--0--1--0-----0--1-----0-----|  x4


|-----------------------------|
|-----------------------------|
|-----------5--------5--------|
|--0--1--0--5--0--1--5--0 

Тональность:

Это должно быть в ТОП-листе! - Топ-лист композиций



Назад
Рекомендуем посмотреть другие песни исполнителя «Machine Head»:

  • Комменты Fb ()
  • Комменты ВК



Добавить в Избранное Браузера
Сохранить здесь Очистить


x

0


+
-

+
-

-

Авторизация





Зарегистрироваться

M

Дата и время

  • 10:09:11
     

Социальные ссылки


Наши приложения

  • Muzbank App Play Market
  • Muzbank Amazon App