MUZBANK


МУЗЫКАЛЬНО-ИНФОРМАЦИОННЫЙ БАНК





MMadonna • One More Chance (аккорды и текст - chords & lyrics)


1212

Print

Видео «One More Chance (Madonna)»

Видео клипы к песне подбираются автоматически сайтом youtube. Возможны некоторые несоответствия клипов песне.

↑ Спрятать рекламу ↑





 


Intro:

      Fmaj7  C   Fsus4   C
e-------0----0-----1-----0---
B-------1----1--3--1--3--1--3
G---0-2-2----0-----3-----0---
D-4-----3----2-----3-----2---
A-------0----3-----1-----3---
E-------0----0-----1-----0---

      Fmaj7  C   Fsus4   C 
e-------0----0-----1-----0---
B---0-2-1----1--3--1--3--1--3
G-4-----2----0-----3-----0---
D-------3----2-----3-----2---
A-------0----3-----1-----3---
E-------0----0-----1-----0---


        Am   C     F F F F
e-------0----0--1--1-
B---0-2-1----1-----1-
G-4-----2----0-----2-
D-------2----2-----3-
A-------0----3-----3-
E-------0----0-----1-

          Fmaj7  C           Fsus4           C   Fmaj7
I turned around too late to see the fallen star
           C             Fsus4             C
I fell asleep and never saw the sun go down
Dm                     Fsus4
I took your love for granted
         C              F  Am  Dm
Thought luck was always on my side
                     Fsus4             F
I turned around too late and you were gone

Chorus:

            B           C
So give me one more chance
 Dm             C        F
Darlin 

Тональность:

Это должно быть в ТОП-листе! - Топ-лист композиций



Назад
Рекомендуем посмотреть другие песни исполнителя «Madonna»:

  • Комменты Fb ()
  • Комменты ВК



Добавить в Избранное Браузера
Сохранить здесь Очистить


x

0


+
-

+
-

-

Авторизация





Зарегистрироваться

M

Дата и время

  • 21:29:59
     

Социальные ссылки


Наши приложения

  • Muzbank App Play Market
  • Muzbank Amazon App