MUZBANK


МУЗЫКАЛЬНО-ИНФОРМАЦИОННЫЙ БАНК





MMadonna • Ray Of Light (аккорды и текст - chords & lyrics)


503

Print

Видео «Ray Of Light (Madonna)»

Видео клипы к песне подбираются автоматически сайтом youtube. Возможны некоторые несоответствия клипов песне.

↑ Спрятать рекламу ↑






 


Intro: (repeat 3x)

  H                Cm            
e--1--------1-------3--------3---
B-3------3-3-----3-4------4-4----
G--3--------3-------5--------5---
D-3------3-3-----3-5------5-5----

   Dm               D#
e----5--------5-------6--------6------
B-4-6------6-6-----6-8------8-8-----8-  
G----7--------7-------8--------8------
D-5-7------7-7-----7-8------8-8-----8-

Main: 
H  Cm  Dm  D# - Repeat 2x

H             Cm             Dm
Zephyr in the sky at night I wonder 
D#              H
Do my tears of mourning 
Cm               Dm  D#
Sink beneath the sun 
She 

Тональность:

Это должно быть в ТОП-листе! - Топ-лист композиций



Назад
Рекомендуем посмотреть другие песни исполнителя «Madonna»:

  • Комменты Fb ()
  • Комменты ВК



Добавить в Избранное Браузера
Сохранить здесь Очистить


x

0


+
-

+
-

-

Авторизация





Зарегистрироваться

M

Дата и время

  • 11:19:22
     

Социальные ссылки


Наши приложения

  • Muzbank App Play Market
  • Muzbank Amazon App