MUZBANK


МУЗЫКАЛЬНО-ИНФОРМАЦИОННЫЙ БАНК





ММаксим Фадеев • Ангелы (аккорды и текст - chords & lyrics)


181

Print

Видео «Ангелы (Максим Фадеев)»

Видео клипы к песне подбираются автоматически сайтом youtube. Возможны некоторые несоответствия клипов песне.

↑ Спрятать рекламу ↑





Amadd9                    B7
Ну, вот и все, я больше не буду прежним
          Em/B    Em/G                C 
Ну, вот и все, и все разлетелись надежды

Am               
Как бы я хотел вас всех обнять
D#dim7
И просто о многом молчать
Em/B
И «Зимняя вишня» уже не горит
G#dim/D   Bdim/D     Ddim/F   
Кричала несчастная мать
Am(V)                              B/A
И сердце уже не будет стучать как всегда
Em/B     Em/G                 C
И встали часы и будут длиннее года
Am                                   D#dim7
Вы ангелы наши, мы будем молиться за вас
Em/B          G#dim/D   Bdim/D     Ddim/F
Каждую секунду и час
Am(V)                                Cdim/A
Ты все равно жив и в сердце ты моем навсегда
Em/B                                    C
Ты все равно жив, но так распорядилась судьба
Am                                D#dim7
Ты все равно жив и ангелы с тобою легко

Em/B           G#dim/D   Bdim/D     Ddim/F
Летят высоко, летят высоко
Am(V)                      Cdim/A(VII)
Ты жив, и в сердце ты моем навсегда
Em/B                                    C
Ты все равно жив, но так распорядилась судьба
Am                                D#dim7
Ты все равно жив и ангелы с тобою легко
Em/B                 G#dim/D   Bdim/D     Ddim/F
Летят высоко, летят высоко

Ну, вот и все, мы с вами встретимся позже
Но вот и все, и это изменить невозможно
Как бы я хотел вас всех обнять
И просто о многом молчать
И многие тысячи слов любви
Сказала бы каждая мать
Я знаю, что там у вас будет все хорошо
И с Богом вы рядом, иначе б никто не ушел
Вы ангелы наши, мы будем молиться за вас
Каждую секунду и час

Ты все равно жив и в сердце ты моем навсегда
Ты все равно жив, но так распорядилась судьба
Ты все равно жив и ангелы с тобою легко
Летят высоко, летят высоко
Ты жив, и в сердце ты моем навсегда
Ты все равно жив, но так распорядилась судьба
Ты все равно жив и ангелы с тобою легко
Летят высоко, летят высоко 


Аккорды:
   Amadd9    B7      Em/B    Em/G    C       Am    D#dim7  G#dim/D  Bdim/D
E |--0----|--2----|--3----|--0----|--0----|--0----|--2----|--4----|--7----|
B |--1----|--0----|--0----|--0----|--1----|--1----|--1----|--3----|--6----|
G |--4----|--2----|--0----|--0----|--0----|--2----|--2----|--4----|--7----|
D |--2----|--1----|--2----|--2----|--2----|--2----|--1----|--0----|-------|
A |--0----|--2----|--2----|--2----|--3----|--0----|-------|-------|-------|
E |-------|-------|-------|--3----|-------|-------|-------|-------|-------|

Ddim/F   Am(V)   B/A    Cdim/A  Cdim/A(VII)
--10---|--5----|--5----|--5----|---8----||
--9----|--5----|--4----|--4----|---7----||
--10---|--5----|--4----|--5----|---8----||
-------|--7----|--4----|--4----|---7----||
-------|--7----|--0----|--0----|---0----||
-------|--5----|-------|-------|--------||

Тональность:

Отправитель: VOLORD5

Это должно быть в ТОП-листе! - Топ-лист композиций



Назад
Рекомендуем посмотреть другие песни исполнителя «Максим Фадеев»:

  • Комменты Fb ()
  • Комменты ВК



Добавить в Избранное Браузера
Сохранить здесь Очистить


x

0


+
-

+
-

-

Авторизация





Зарегистрироваться

M

Дата и время

  • 20:28:46
     

Социальные ссылки


Наши приложения

  • Muzbank App Play Market
  • Muzbank Amazon App