MUZBANK


МУЗЫКАЛЬНО-ИНФОРМАЦИОННЫЙ БАНК





MMana • San Blas (аккорды и текст - chords & lyrics)


491

Print

Видео «San Blas (Mana)»

Видео клипы к песне подбираются автоматически сайтом youtube. Возможны некоторые несоответствия клипов песне.

↑ Спрятать рекламу ↑





 


Mana

En el muelle de San Blas (unplugged) (TAB)
Tabbed by maria de los angeles cambra : mariangelescambra@arnet.com.ar

Intro
      Em7          A7               D/F#             G
e|---------0---------------0--------------------------------------2----|
B|-----3-----3---3-----2-----2---2----------3----------------0------3--|
G|---0---0-----0-----0---0-----0--------2-----2---2----0---0-----------|
D|-2----------------------------------0---0-----0--------0-----0-------|
A|-----------------0---------------------------------------------------|
E|----------------------------------2----------------3-----------------| 
Esto lo hace tres veces mas y al final toca un La y empieza el arpegio siguiente
Arpegio 1
      Em                 A         D9              G
e|---------7---------------5--------------5----------------3---2---|
b|-----8-----9---9-----5-----5---5-----5-----5---5-----3-----3---3-|
g|---9---9-----8-----6---6-----6-----7---7-----7-----4---4---------|
d|-----------------------------------------------------------------|
a|-7-------------------------------5-------------------------------|
E|-----------------5-------------------------------3---------------|
Arpegio 1 (x2)
Em                 A                     D9                        G
Ela d 

Тональность:

Это должно быть в ТОП-листе! - Топ-лист композиций



Назад
Рекомендуем посмотреть другие песни исполнителя «Mana»:

  • Комменты Fb ()
  • Комменты ВК



Добавить в Избранное Браузера
Сохранить здесь Очистить


x

0


+
-

+
-

-

Авторизация





Зарегистрироваться

M

Дата и время

  • 02:24:32
     

Социальные ссылки


Наши приложения

  • Muzbank App Play Market
  • Muzbank Amazon App