MUZBANK


МУЗЫКАЛЬНО-ИНФОРМАЦИОННЫЙ БАНК





MManowar • Battle Hymn (аккорды и текст - chords & lyrics)


341

Print

Видео «Battle Hymn (Manowar)»

Видео клипы к песне подбираются автоматически сайтом youtube. Возможны некоторые несоответствия клипов песне.

↑ Спрятать рекламу ↑






 


by Manowar
                              Taken from the album
                                  Battle Hymns
                                 Transcribed by
                        Mikko issakainen, miissaka@jyu.fi
  1   2   3   4     1    2    3   4     1   2   3   4     1   2   3   4
|---0-3-0-5-0-7-0-|-12-0-10-0-7-----7-|-5-------5-----5-|-3-----3---------|
--------5--5--|---3---3---3--3--|---1--1--7-----7-|
----------4-----2---|-----0-----4--4--|
----------------------4---|
--------------------------|
|-0-----------------------------------|
   (Bass & Elec guitar)

  
  1   2   3   4     1       2       3       4
|---0-3-0-5-0-7-0-|-12--0---10--0---5---------5-----|
----------------3---3---3---|
------------------2-------2-|
----------------------------|
----------------------------|
|-0-------------------------------------|
  1       2       3       4         1       2       3       4
|-5---------5-----5-------5-------|-3---------3---------------------|
|-----3---3---3-----3---3---3---3-|-----1---1---1---7-------------7-|
|-------2-------2-----2-------2---|-------0-------0-----4------4----|
------------------------------------4-------|
--------------------------------------------|
--------------------------------------------|
                                  |Riff 1: (Elec. guitar)
                                  |-7-------------------------------|
                                  |----------10-----7-b(8)r---------|
                                  ---------------7------|
                                  ----------------------|
                                  ----------------------|
                                  ----------------------|

    
  1   2   3   4     1       2       3       4
|---0-3-0-5-0-7-0-|-12--0---10--0---7-------7-------|
--------------5---5---5---5-|
----------------4-------4---|
----------------------------|
----------------------------|
|-0-------------------------------------|
                                   Riff 1
  1       2       3       4         1       2       3       4
|-5-------5-------5-555-----5-----|-3-------3-----------------------|
|---3---3---3---3-------3-----3---|---1---1---1---1-7-------7-------|
--2-----------2-----2-|-----0-------0-----4---4---4---4-|
--------------------------------4-------4---|
--------------------------------------------|
--------------------------------------------|
     (Bass & Elec guitar)                                  Riff1 (1st 3 notes
                                                                  only)
  1   2   3   4     1    2    3   4     1   2   3   4     1   2   3   4
|---0-3-0-5-0-7-0-|-12-0-10-0-7-----7-|-5-------5-----5-|-3-----3---------|
--------5--5--|---3---3---3--3--|---1--1--7-----7-|
----------4-----2---|-----0-----4--4--|
----------------------4---|
--------------------------|
|-0-----------------------------------|
  1     2     3     4       1     2     3     4       1     2     3     4
------------------------------------------|
--6-------------5-------------------------|
|-9-----------9-------------5-------------4-----------|
|-9-----------9-----------|-5-5-5-5-5-5-5-----------|-5-----------5-----------|
|-7-----------------------|-3-3-3-3-3-3-3-----------|-5-----------5-----------|
|-0-------------------------------------|-3-----------------------|
  1     2     3     4
             Guitar 2
-[10]--[11]---|
--------------|
|-7-----------------------|
|-7-----------7-----8-----|
|-5-----------5-----6-----|
--------------|
  1     2     3     4       1     2     3     4       1     2     3     4
 Pm----       Pm---                                  Pm----       Pm---
------------------------------------------|
------------------------------------------|
|-------9-----------9-----|-5-----7-----9-----5-----|-------9-----------9-----|
|-9-9-9-9-----9-9-9-9-----|-5-----7-----9-----5-----|-9-9-9-9-----9-9-9-9-----|
|-7-7-7-7-----7-7-7-7-----|-3-----5-----9-----3-----|-7-7-7-7-----7-7-7-7-----|
------------------------------------------|
  1     2     3     4       1     2     3     4       1     2     3     4
                            Pm----      Pm---
------------------------------------------|
------------------------------------------|
|-5-----7-----9-----------|-------9-----------9-----|-5-----7-----9-----5-----|
|-5-----7-----9-----------|-9-9-9-9-----9-9-9-9-----|-5-----7-----9-----5-----|
|-3-----5-----7-----------|-7-7-7-7-----7-7-7-7-----|-3-----5-----9-----3-----|
------------------------------------------|
  1     2     3     4       1     2     3     4       1     2     3     4
 Pm----       Pm---
------------------------------------------|
------------------------------------------|
|-------9-----------9-----|-5-----7-----9-----5-----|-4-----------------------|
|-9-9-9-9-----9-9-9-9-----|-5-----7-----9-----5-----|-4-----------------------|
|-7-7-7-7-----7-7-7-7-----|-3-----5-----9-----3-----|-2-----------------------|
------------------------------------------|
> 1   2   3   4     1   2   3   4     1   2   3   4     1   2   3   4
|-----8-----8-----|-----8-------8---|-----8-----8-----|-----8--6-------|
|-6-------6-----6-------------------|
------|-9-------9-----9-|-8-------8-----8-|-7-------------7-|
------------------------|
------------------------|
------------------------|
  1   2   3   4     1   2   3   4     1   2   3   4       1   2   3   4
                                                   HP
|-----6-----6-----|-5---------3--/8-|-----3---3-5-353---------8-|
------|-6-----6-----------------|-6-------6---6/8---|
|-6-------6-------|-5---5-----------|-5-----5---------5-|-----5-5---5-------|
----------------------------|
----------------------------|
----------------------------|
  1   2   3   4     1   2   3   4     1   2   3   4      1   2   3   4
|-----10----10----|-----10------10--|-----10----10-----|-----10----------|
|/8-------8-----8-|-7-------7-----7--------------|
------------|-10------10----10-|-9-------------9-|
-------------------------|
-------------------------|
-------------------------|
  1   2   3   4     1   2   3   4     1   2   3   4     1   2   3   4
>                                                  HP
|-----8-----8-----|-7---------5/10--|-----5---5-7-575-------|
------|-8-----8---------------|-8---------------|
|-8-------8-------|-7---7-----------|-7-----7---------------|
------------------------|
------------------------|
------------------------|
Here shold be the guitar solo but... ;)
There shouldn 

Тональность:

Это должно быть в ТОП-листе! - Топ-лист композиций



Назад
Рекомендуем посмотреть другие песни исполнителя «Manowar»:

  • Комменты Fb ()
  • Комменты ВК



Добавить в Избранное Браузера
Сохранить здесь Очистить


x

0


+
-

+
-

-

Авторизация





Зарегистрироваться

M

Дата и время

  • 15:14:32
     

Социальные ссылки


Наши приложения

  • Muzbank App Play Market
  • Muzbank Amazon App