MUZBANK


МУЗЫКАЛЬНО-ИНФОРМАЦИОННЫЙ БАНК





MManowar • Die for Metal (аккорды и текст - chords & lyrics)


2413

Print

Видео «Die for Metal (Manowar)»

Видео клипы к песне подбираются автоматически сайтом youtube. Возможны некоторые несоответствия клипов песне.

↑ Спрятать рекламу ↑





They can't stop us
Let 'em try
For heavy metal
We will die!

Quit my job this morning said forever
I would hold my head up high
Cause I need metal in my life
Just like an eagle needs to fly

So i walked outside into the street
From a hall I heard thunder and screams
I walked inside so I could hear
And the guy beside me gave me a beer

He had his fist up in the air
And called me brother said my friends
Are over there

They call themselves immortals
They're the truest of the true
And in that very moment
I was born again like you

They said hold your head up high
Raise your fist up in the air
Play metal louder than hell
Louder than hell

They can't stop us
Let 'em try
For heavy metal
We would die!

Brothers stand beside me, there's a battle on
Know my words are true
There's a battle for true metal
They're marching; they're marching on
Me and you

Ten thousand strong are here tonight
With twenty thousand fists up in the air
The power of true metal's calling you
It's everywhere

Hold your head up high
Raise your fist up in the air
Play metal louder than hell
Louder than hell

They can't stop us
Let 'em try
For heavy metal
We would die!



Intro: (x2)
E|-------------------------------------------------------| 
B|-------------------------------------------------------| 
G|-------------------------------------------------------| 
D|-7-7-7-7--8-8-8-8----7-7-7-7--5-5-5-5------------------|  
A|-5-5-5-5--5-5-5-5----3-3-3-3--2-2-2-2------------------| 
D|-------------------------------------------------------|

E|-------------------------------------------------------| 
B|-------------------------------------------------------| 
G|-------------------------------------------------------| 
D|-3-2-3-0-----------------------------------------------| 
A|-1-0-1-0-----------------------------------------------| 
D|-------0-----------------------------------------------|

Riff 2: (x5)
E|-------------------------------------------------------| 
B|-------------------------------------------------------| 
G|-------------------------------------------------------| 
D|-0-------2-------3-------5-------0---------------------| 
A|-0-------2-------3-------5-------0---------------------| 
D|-0-0-0-0-2-2-2-2-3-3-3-3-5-5-5-5-0---------------------| 
   . . . . . . . . . . . .

Riff 3: 
E|-------------------------------------------------------| 
B|-------------------------------------------------------| 
G|-7--9--10--12------------------------------------------| 
D|-7--9--10--12------------------------------------------| 
A|-5--7---8--10-\----------------------------------------| 
D|-------------------------------------------------------|

Riff 4: (x2) 
E|-------------------------------------------------------| 
B|-------------------------------------------------------| 
G|-------------------------------------------------------| 
D|-7-7-7-7--8-8-8-8--5-5-5----7-7-7-7--5-5-5-5--3-2-3-0--| 
A|-5-5-5-5--5-5-5-5--5-5-5----3-3-3-3--2-2-2-2--1-0-1-0--| 
D|----------------------------------------------------0--|

Riff 2: (x4) 
Riff 4: (x2) 
Riff 2: (x4)

Fill: 
E|-------------------------------------------------------| 
B|-------------------------------------------------------| 
G|-------------------------------------------------------| 
D|-------------------------------------------------------| 
A|---0---0---0---0---0---0-------------------------------| 
D|-5---5---5---5---5---5---5-----------------------------| 
   . . . . . . . . . . . . .

Тональность:

Это должно быть в ТОП-листе! - Топ-лист композиций



Назад
Рекомендуем посмотреть другие песни исполнителя «Manowar»:

  • Комменты Fb ()
  • Комменты ВК



Добавить в Избранное Браузера
Сохранить здесь Очистить


x

0


+
-

+
-

-

Авторизация





Зарегистрироваться

M

Дата и время

  • 18:56:21
     

Социальные ссылки


Наши приложения

  • Muzbank App Play Market
  • Muzbank Amazon App