MUZBANK


МУЗЫКАЛЬНО-ИНФОРМАЦИОННЫЙ БАНК





MManowar • Swords In The Wind (аккорды и текст - chords & lyrics)


800

Print

Видео «Swords In The Wind (Manowar)»

Видео клипы к песне подбираются автоматически сайтом youtube. Возможны некоторые несоответствия клипов песне.

↑ Спрятать рекламу ↑





 


Intro

  Em
e-----0-------0-------0-------0-----
b------0-------0-------0-------0----
g----0--0----0--0----0--0----0--0---
d---2----2--2----2--2----2--2----2--
a--2-------2-------2-------2--------
e-0-------0-------0-------0---------



I surrender my soul Odin hear my call
  Em      C       H       Em  
------0-------0-------2-------0-----
---------------------4---------0----
-----0--------------4--------0--0---
----2------2-------4--------2----2--
---2------3-------2--------2--------
--0-----------------------0---------

One day I 

Тональность:

Это должно быть в ТОП-листе! - Топ-лист композиций



Назад
Рекомендуем посмотреть другие песни исполнителя «Manowar»:

  • Комменты Fb ()
  • Комменты ВК



Добавить в Избранное Браузера
Сохранить здесь Очистить


x

0


+
-

+
-

-

Авторизация





Зарегистрироваться

M

Дата и время

  • 13:41:21
     

Социальные ссылки


Наши приложения

  • Muzbank App Play Market
  • Muzbank Amazon App