MUZBANK


МУЗЫКАЛЬНО-ИНФОРМАЦИОННЫЙ БАНК





MManowar • Warlord (аккорды и текст - chords & lyrics)


543

Print

Видео «Warlord (Manowar)»

Видео клипы к песне подбираются автоматически сайтом youtube. Возможны некоторые несоответствия клипов песне.

↑ Спрятать рекламу ↑





 


In this tablature the simbol "/" is a "bend".

Intro: (is played two times)              
e|-----------------------------------------------------------------------|
b|-----------------------------------------------------------------------|
g|-----------------------------------------------------------------------|
D|-2-222222222222222------------------------------------5-5-7-5-5-5-7----|
A|-0-000000000000000--2-222222222222222--3-3-5-3-3-3-5--3-3-3-3-3-3-3----|
E|--------------------0-000000000000000--1-1-1-1-1-1-1-------------------|
                                 
e|----------------------------|
b|----------------------------|
g|---------------------------o|
D|-7-7-9-7-7-7-9-7-7-7-9-7-7-o|
A|-5-5-5-5-5-5-5-5-5-5-5-5-5--|
E|----------------------------|

   When you see me comin 

Тональность:

Это должно быть в ТОП-листе! - Топ-лист композиций



Назад
Рекомендуем посмотреть другие песни исполнителя «Manowar»:

  • Комменты Fb ()
  • Комменты ВК



Добавить в Избранное Браузера
Сохранить здесь Очистить


x

0


+
-

+
-

-

Авторизация





Зарегистрироваться

M

Дата и время

  • 14:26:26
     

Социальные ссылки


Наши приложения

  • Muzbank App Play Market
  • Muzbank Amazon App