MUZBANK


МУЗЫКАЛЬНО-ИНФОРМАЦИОННЫЙ БАНК





MMarilyn Manson • Cake And Sodomy (аккорды и текст - chords & lyrics)


842

Print

Видео «Cake And Sodomy (Marilyn Manson)»

Видео клипы к песне подбираются автоматически сайтом youtube. Возможны некоторые несоответствия клипов песне.

↑ Спрятать рекламу ↑





 


MARILYN MANSON - CAKE AND SODOMY
Tabbed by: Mattias Jaselius

Standard Tuning

INTRO:

e|------------------------------------|
b|------------------------------------|
g|------------------------------------|
d|--9-9---9-9---9-9---9-93--------|
a|--9-9---9-9---9-9---9-93--------|
e|--7-7---7-7---7-7---7-71/7------|

RIFF 1: 2x

e|-------------------------------------------------|
b|-------------------------------------------------|
g|----------------------------------|
d|--9-9-------------------------------------------|
a|--9-9-------------------------------------------|
e|--7-7-------------------------------------------|
  (virgins sold in quantity...)

RIFF 2: 2x

e|----------------------------------------------------|
b|----------------------------------------------------|
g|----------------------------------------------------|
d|--9-9--3-/-9-------------------------------------|
a|--9-9--3-/-9-----------7777--------4444----------|
e|--7-7--1-/-7-77777777--5555-5p7-5--2222-2p5-2----|
                       p.m.... . .    .... . .

RIFF 3:

e|----------------------------------------------------|
b|----------------------------------------------------|
g|----------------------------------------------------|
d|--9-9--3-/-9----------------------------77---------|
a|--9-9--3-/-9-99999999--777774/74--4---55---------|
e|--7-7--1-/-7-77777777--555552/52--2--------------|
  (Porno nation...)

RIFF 4: guitar 2 plays riff 3.

e|----------------------------------------------------------------------|
b|--12-12-12-12-12-12-12-1210-10-10-10-107-7-7-7----------------------|
g|--11-11-11-11-11-11-11-119--9--9--9--9-6-6-6-6----------------------|
d|--9--9--9--9--9--9--9--9-7--7--7--7--7-4-4-4-4------7777-----7fb----|
a|------------------------------------------------------5555-----7fb----|
e|---------------------------------------------------------------5fb----|

CHORUS: 2x

e|---------------------14fb------------------------------------|
b|---------------------14fb------------------------------------|
g|-----------------------------------------------777-----------|
d|--9-9------7-7-----------------244424444/7-777-777-----------|
a|--9-9-XXXX-7-7-----------------244424444/7-777-555-----------|
e|--7-7-XXXX-5-5-----------------022202222/5-555---------------|
  (White trash get down on your knees...)

(Continued)

e|----------------------------------------------------|-------END-------|
b|-------------------1210/12---------------7777-----|-----------------|
g|-------------------119-/11---------------7777-----|-----------------|
d|--9-9------7-7-----9-7-/9----244424444---5555-777-|--9-------------|
a|--9-9-XXXX-7-7-----------------244424444--------777-|--9-------------|
e|--7-7-XXXX-5-5-----------------022202222--------555-|--7-------------|
        pick slide  

RIFF 5: 2x

e|---------------------------------------------|
b|---------------------------------------------|
g|-------------------------11-14-11-14--------|
d|--9-9--------------------------.--.--.------------|
a|--9-9---------------------------------------------|
e|--7-7---------------------------------------------|
  (VCR 

Тональность:

Это должно быть в ТОП-листе! - Топ-лист композиций



Назад
Рекомендуем посмотреть другие песни исполнителя «Marilyn Manson»:

  • Комменты Fb ()
  • Комменты ВК



Добавить в Избранное Браузера
Сохранить здесь Очистить


x

0


+
-

+
-

-

Авторизация





Зарегистрироваться

M

Дата и время

  • 12:31:08
     

Социальные ссылки


Наши приложения

  • Muzbank App Play Market
  • Muzbank Amazon App