MUZBANK


МУЗЫКАЛЬНО-ИНФОРМАЦИОННЫЙ БАНК





MMarilyn Manson • I Dont Like The Drugs (аккорды и текст - chords & lyrics)


537

Print

Видео «I Dont Like The Drugs (Marilyn Manson)»

Видео клипы к песне подбираются автоматически сайтом youtube. Возможны некоторые несоответствия клипов песне.

↑ Спрятать рекламу ↑





Intro
E|---------------------|
B|---------------------|
G|---------------------|
D|-4-4------4-4----5-5-|
A|-4-4------4-4----5-5-|
E|-2-2------2-2----3-3-|
("I don?t like the drugs...")

Verse (Guitar 1, with effect)
E|-------------------------------------------------|
B|-------------------------------------------------|
G|-------------------------------------------------|
D|-2h4p2-2-4--2h4p2-2--2h4p2-2-4--4-6-7--2h4p2-2-4-|
A|-------------------------------------------------|
E|-------------------------------------------------|

(continued)
E|-------------------/14-14-14-14-|
B|--------------------------------|
G|--------------------------------|
D|-2h4p2-2--2h4p2-4---------------|
A|--------------------------------|
E|--------------------------------|

Pre-Chorus A (Guitar 1)                  end on
E|---------------------------------------|----|
B|---------------------------------------|----|
G|-6--6--9-9-9--6-6-9--6-6-9---6--6------|----|
D|-6--6--9-9-9--6-6-9--6-6-9---6--6--2-3-|--4-|
A|-4--4--7-7-7--4-4-7--4-4-7---4--4--2-3-|--4-|
E|-----------------------------------0-1-|--2-|
("You and I are...")

Pre-Chorus B (Guitar 2)
E|--------------------------------------------|
B|-9^---12^---9^----------9^---12^---9^-------|
G|----------------11--9-----------------------|
D|---------------------------------------2--3-|
A|---------------------------------------2--3-|
E|---------------------------------------0--1-|

Chorus
E|-------------------------------------------------------|
B|-------------------------------------------------------|
G|-----------------2----2--4-------------------2----4--2-|
D|-4-4--4-4--4-4-4-2-2--2--4---4-4--4-4--4-4-4-2-2--4--2-|
A|-4-4--4-4--4-4-4-0-2--0--2---4-4--4-4--4-4-4-0-2--2--0-|
E|-2-2--2-2--0h2-2---0---------2-2--2-2--0h2-2---0-------|
("I don?t like the drugs...")

Fill         Bridge (Bass)
E|-------14^-|----------------------------------------|
B|----14-----|----------------------------------------|
G|-11--------|----------------------------------------|
D|-----------|----------------------------------------|
A|-----------|----------------------------------------|
E|-----------|-8---6---6-6---6-6---6---5---5-5----5-5-|

Outro (Guitar 2)
E|-----------------------------------------------------|
B|---------------------5-7^-----------------------5-7^-|
G|-----------------------------------------------------|
D|-4-4-/7^---4-4-/7^----------4-4-/7^---4-4-/7^--------|
A|-4-4-/7^---4-4-/7^----------4-4-/7^---4-4-/7^--------|
E|-----------------------------------------------------|

(continued)
E|---------------1312-----------------------------17^(x4)-|
B|----------------------1312------------------------------|
G|--------------------------------------------------------|
D|-4^---4^---4^----------------4^-x-x-4^-x-x-4^-x-x-------|
A|-4^---4^---4^----------------4^-x-x-4^-x-x-4^-x-x-------|
E|--------------------------------------------------------|

Тональность:

Это должно быть в ТОП-листе! - Топ-лист композиций



Назад
Рекомендуем посмотреть другие песни исполнителя «Marilyn Manson»:

  • Комменты Fb ()
  • Комменты ВК



Добавить в Избранное Браузера
Сохранить здесь Очистить


x

0


+
-

+
-

-

Авторизация





Зарегистрироваться

M

Дата и время

  • 01:58:08
     

Социальные ссылки


Наши приложения

  • Muzbank App Play Market
  • Muzbank Amazon App