MUZBANK


МУЗЫКАЛЬНО-ИНФОРМАЦИОННЫЙ БАНК





MMarilyn Manson • Irresponsible Hate Anthem Live (аккорды и текст - chords & lyrics)


443

Print

Видео «Irresponsible Hate Anthem Live (Marilyn Manson)»

Видео клипы к песне подбираются автоматически сайтом youtube. Возможны некоторые несоответствия клипов песне.

↑ Спрятать рекламу ↑





 


Irresponsible Hate Anthem (Live) by Marilyn Manson
Guitarist: John5
Album: The Last Tour On Earth
Dif.: 7
Tabbed by TWIGGy5

Intro/Interlude
D|-4-4-4-7-7-7-9-910-10-10-9-9-9-7--4-4-4-7-7-7-9-9-2-2-2-3-|
A|-4-4-4-7-7-7-9-910-10-10-9-9-9-7--4-4-4-7-7-7-9-9-2-2-2-3-|
E|-2-2-2-5-5-5-7-7-8--8--8-7-7-7-5--2-2-2-5-5-5-7-7-0-0-0-1-|

Fill 1
E|-0-----------------------|
B|-0-----------------------|
G|-3-----------------------|
D|-4-Pull-up-on-whammy-bar-|
A|-4-----------------------|
E|-2-----------------------|

Verse ( 

Тональность:

Это должно быть в ТОП-листе! - Топ-лист композиций



Назад
Рекомендуем посмотреть другие песни исполнителя «Marilyn Manson»:

  • Комменты Fb ()
  • Комменты ВК



Добавить в Избранное Браузера
Сохранить здесь Очистить


x

0


+
-

+
-

-

Авторизация





Зарегистрироваться

M

Дата и время

  • 23:50:10
     

Социальные ссылки


Наши приложения

  • Muzbank App Play Market
  • Muzbank Amazon App