MUZBANK


МУЗЫКАЛЬНО-ИНФОРМАЦИОННЫЙ БАНК





MMarilyn Manson • The Dope Show (аккорды и текст - chords & lyrics)


516

Print

Видео «The Dope Show (Marilyn Manson)»

Видео клипы к песне подбираются автоматически сайтом youtube. Возможны некоторые несоответствия клипов песне.

↑ Спрятать рекламу ↑






 PART 1:
E|----------------------------------------------------------|
B|----------------------------------------------------------|
G|--9-9-9-9-9-9-9-9/12-12-12-12-12-12-12-12/7-7-7-7-7-7-7/5-|
D|--9-9-9-9-9-9-9-9/12-12-12-12-12-12-12-12/7-7-7-7-7-7-7/5-|
A|--7-7-7-7-7-7-7-7/10-10-10-10-10-10-10-10/5-5-5-5-5-5-5/3-|
E|-0--------------------------------------------------------|

E|-----------------|
B|-----------------|
G|-5-5-5-5-5-5-5/4-|
D|-5-5-5-5-5-5-5/4-|
A|-3-3-3-3-3-3-3/2-|
E|-----------------|

 PART 2: (sounds like w/wah)
E|------------------------------------|
B|------------------------------------|
G|------------------------------------|
D|------------------------------------|
A|--7-7-7-7-5-7---7---7-7-7-7-5-7---7-|
E|--------------3-----------------3---|

 PART 3:
E|----------------------------------|
B|----------------------------------|
G|--9-9-9-9-7-7-7-7-5-5-5-5---------|
D|--9-9-9-9-7-7-7-7-5-5-5-5-5-5-5-5-|
A|--7-7-7-7-5-5-5-5-3-3-3-3-5-5-5-5-|
E|--------------------------3-3-3-3-|

 PART 4:
E|--------------------------|
B|--------------------------|
G|--------------7-7-5-5-5-4-|
D|--2-2-2-2-5-2-7-7-5-5-5-4-|
A|--2-2-2-2-5-2-5-5-3-3-3-2-|
E|--0-0-0-0-3-0-------------|

Тональность:

Это должно быть в ТОП-листе! - Топ-лист композиций



Назад
Рекомендуем посмотреть другие песни исполнителя «Marilyn Manson»:

  • Комменты Fb ()
  • Комменты ВК



Добавить в Избранное Браузера
Сохранить здесь Очистить


x

0


+
-

+
-

-

Авторизация





Зарегистрироваться

M

Дата и время

  • 22:00:48
     

Социальные ссылки


Наши приложения

  • Muzbank App Play Market
  • Muzbank Amazon App