MUZBANK


МУЗЫКАЛЬНО-ИНФОРМАЦИОННЫЙ БАНК





MMarilyn Manson • The Nobodies (аккорды и текст - chords & lyrics)


799

Print

Видео «The Nobodies (Marilyn Manson)»

Видео клипы к песне подбираются автоматически сайтом youtube. Возможны некоторые несоответствия клипов песне.

↑ Спрятать рекламу ↑





Основная партия:

E|------------------|-------------------|-------------------|
B|----1---1---1---1-|-----1---1---1---1-|-----1-------1-----|
G|-2----2---2---2---|---2---2---2---2---|-------1-------1---|
D|------------------|-------------------|---2-----2-2-----2-|
A|--0---------------|-3-----------------|-------------------|
E|------------------|-------------------|-0-----------------|


E|---------------------|
B|-----1---1-----1---1-|
G|---2---2---2-----2---|
D|---------------------|
A|-0-------------------|
E|-------------3-------|


Припев:

E|-----------------|-----------------|
B|-----------------|-----------------|
G|-2-2-2-2-2-2-2-2-|-0-0-0-0-0-0-0-0-|
D|-2-2-2-2-2-2-2-2-|-1-1-1-1-1-1-1-1-|
A|-0-0-0-0-0-0-0-0-|-3-3-3-3-3-3-3-3-|
E|-----------------|-----------------|

E|-----------------|-----------------|
B|-----------------|-----------------|
G|-----------------|-2-2-2-2---------|
D|-2-2-2-2-2-2-2-2-|-2-2-2-2-0-0-0-0-|
A|-2-2-2-2-2-2-2-2-|-0-0-0-0-1-1-1-1-|
E|-0-0-0-0-0-0-0-0-|---------3-3-3-3-|


Переход (Some children died...):

E|-----------------|-----------------|
B|-----------------|-----------------|
G|-2-2-2-2-2-2-2-2-|-----------------|
D|-2-2-2-2-2-2-2-2-|-3-3-3-3-3-3-3-3-|
A|-0-0-0-0-0-0-0-0-|-3-3-3-3-3-3-3-3-|
E|-----------------|-1-1-1-1-1-1-1-1-|



Текст:


Today I`m dirty, I want to be pretty
Tomorrow, I know I`m just dirt
Today I`m dirty, I want to be pretty
Tomorrow, I know I`m just dirt

We are the nobodies
We wanna to be somebodies
When we`re dead.
They`ll know just who we are (2x)

Yesterday I was dirty, wanted to be pretty
I know now that I`m forever dirt
Yesterday I was dirty, wanted to be pretty
I know now that I`m forever dirt

We are the nobodies
We wanna to be somebodies
When we`re dead.
They`ll know just who we are

We are the nobodies
We wanna to be somebodies
When we`re dead.
They`ll know just who we are

Some children died the other day
We fed machines and then we pray
Puked up and down in morbid faith
You should have seen the ratings that day!

Тональность:

Это должно быть в ТОП-листе! - Топ-лист композиций



Назад
Рекомендуем посмотреть другие песни исполнителя «Marilyn Manson»:

  • Комменты Fb ()
  • Комменты ВК



Добавить в Избранное Браузера
Сохранить здесь Очистить


x

0


+
-

+
-

-

Авторизация





Зарегистрироваться

M

Дата и время

  • 13:20:03
     

Социальные ссылки


Наши приложения

  • Muzbank App Play Market
  • Muzbank Amazon App