MUZBANK


МУЗЫКАЛЬНО-ИНФОРМАЦИОННЫЙ БАНК





MMarilyn Manson • Wrapped In Plastic (аккорды и текст - chords & lyrics)


375

Print

Видео «Wrapped In Plastic (Marilyn Manson)»

Видео клипы к песне подбираются автоматически сайтом youtube. Возможны некоторые несоответствия клипов песне.

↑ Спрятать рекламу ↑





Here ya go, i just tabbed it out friday. This is wrapped in platic, it is
the same riff just played over and over, there is a chorus part but i
haven't had time to figure it out yet. So here is what i have, it's a
really nice riff.
View it in a font that has all the characters the same length. Every
thing will be even.
Wrapped In Plastic (Guitar)
⁄=slide down
/=slide up
h=hammer on
(not actual note but played inbetween notes)
[G|---------------------------------------|
D|---------------------------------------|
A|---------------------------------------|
E|----8-⁄-2--2-2-2-4--2-2-2-2-(2/5)--7-5-|

G|---------------------------------------|
D|---------------------------------------|
A|----------------------------------5-7--|
E|----------2-2-2-4--2-2-2-2-(2/5)-------|

G|---------------------------------------|
D|---------------------------------------|
A|---------------------------------------|
E|------2-2-2-4--2-2-2-2-(2/7)--7h9-5h7--|

G|---------------------------------------|
D|-------------------4--2-----------4----|  let last note ring
A|-------------------------4--2----------|
E|-----2-2-2-4--2-2---------------4------|]
play twice
Hope this helps out with your home page, let me know, thanks -Shlee

Тональность:

Это должно быть в ТОП-листе! - Топ-лист композиций



Назад
Рекомендуем посмотреть другие песни исполнителя «Marilyn Manson»:

  • Комменты Fb ()
  • Комменты ВК



Добавить в Избранное Браузера
Сохранить здесь Очистить


x

0


+
-

+
-

-

Авторизация





Зарегистрироваться

M

Дата и время

  • 01:10:54
     

Социальные ссылки


Наши приложения

  • Muzbank App Play Market
  • Muzbank Amazon App