MUZBANK


МУЗЫКАЛЬНО-ИНФОРМАЦИОННЫЙ БАНК





MMarley Bob • Concrete Jungle (аккорды и текст - chords & lyrics)


493

Print

Видео «Concrete Jungle (Marley Bob)»

Видео клипы к песне подбираются автоматически сайтом youtube. Возможны некоторые несоответствия клипов песне.

↑ Спрятать рекламу ↑






Verse :

Em Am Em Em
No sun ...

Em Am D D
The high ...

C Em' C Em'
Darkness ... ... into night"



Bridge :

G G D D
Where is ...

Em Am Em Em
life, sweet life ...



Chorus :

Em7 Em6 Em5 Em Em7 Em6 Em5 Em
Concrete jungle ...

Em7 Em6 Em5 Em Em7 Em6 Em5 Em
Concrete jungle ... ... best, yeah



Solo :

|------3-------------|--------------------|--------------------|
|--------------------|--5/7----7h8p7p5-7p5|7h8p7p5-----------7-|
|-3h4-------3h4-----6/7-------------------|---------7---7h9----|
|--------------------|--------------------|--------------------|
|--------------------|--------------------|--------------------|
|--------------------|--------------------|--------------------|

|--------------------|----------------------------|-------------
|7h8-7h8-7h8/10~---11b12-r11b12r11-12/17⁄12--11b12|-10----------
|--------------------|----------------------------|--12p9-12-12-
|--------------------|----------------------------|-------------
|--------------------|----------------------------|-------------
|--------------------|----------------------------|-------------

-----------------|12p10---12-12~--12b14r12--10-10-|----10-
-10h12p10---10-12|----12p10---------------12------|-12----
---------9h12----|--------------------------------|-------
-----------------|--------------------------------|-------
-----------------|--------------------------------|-------
-----------------|--------------------------------|-------

-12b14r12-10--/17-----------------17b19---17b19-17b19r17p15---|
--------------------15---17--15-----|----------------------17-|
-----------------16--------16-------|-------------------------|
------------------------------------|-------------------------|
------------------------------------|-------------------------|
------------------------------------|-------------------------|

|15---14-17p14--14-15-14h15p14-15p14h15p14-15~---14-15p14------|
|-17~---------15-------------------|---------------------15-17-|
|----------------------------------|---------------------------|
|----------------------------------|---------------------------|
|----------------------------------|---------------------------|
|----------------------------------|---------------------------|

|--------------------|--------------------|-----17-------------|
|17~---17b19--17p15--|15h17~---15-17-15-17b19------17b19-17b19-|
|------------------16|--------------------|--------------------|
|--------------------|--------------------|--------------------|
|--------------------|--------------------|--------------------|
|--------------------|--------------------|--------------------|

|-------------------17b19-r-17------15----|---------------
17b19----17b19p15--15--|----------------17~-|----------------
|--------------16----|--------------------|-----------------
|--------------------|--------------------|-----------------
|--------------------|--------------------|----------------
|--------------------|--------------------|---------------



Intro
Verse (0:30)
Chorus (1:19)
Verse (1:40)
Bridge (2:10)
Chorus (2:29)
Solo (2:49) (= Verse + 1st part of the Bridge(2:10))
2st part of the Bridge (3:29)
Chorus (3:38)
Chorus (3:58)
then fade ...


Chords :

Em Am D C Em' G Em7 Em6 Em5 Em
--7---5---5---3---3---3--10---9---8---7--
--8---5---7---5---5---3---8---8---8---8--
--9---5---7---5---4---4---9---9---9---9--
-----------------------------------------
-----------------------------------------
-----------------------------------------

Тональность:

Это должно быть в ТОП-листе! - Топ-лист композиций



Назад
Рекомендуем посмотреть другие песни исполнителя «Marley Bob»:

  • Комменты Fb ()
  • Комменты ВК



Добавить в Избранное Браузера
Сохранить здесь Очистить


x

0


+
-

+
-

-

Авторизация





Зарегистрироваться

M

Дата и время

  • 18:00:26
     

Социальные ссылки


Наши приложения

  • Muzbank App Play Market
  • Muzbank Amazon App