MUZBANK


МУЗЫКАЛЬНО-ИНФОРМАЦИОННЫЙ БАНК





MMayer John • Clarity Acoustic (аккорды и текст - chords & lyrics)


354

Print

Видео «Clarity Acoustic (Mayer John)»

Видео клипы к песне подбираются автоматически сайтом youtube. Возможны некоторые несоответствия клипов песне.

↑ Спрятать рекламу ↑





 


John Mayer
Clarity (acoustic)
transcribed by Mark Demano

*my first tab - give comments at markdemano@hotmail.com*

finger picked and strummed

part 1

intro/verse

E----x----x----------
B----x----x----------
G----2----6----------
D----4----4----------
A----x----5----------
E----3----x----------

part 2

pre-chorus

E----x----x-----------
B----x----x-----------
G----7----14----------
D----5----12----------
A----x----x-----------
E----3----10----------

part 3

chorus

E---------9---5----------------
B---------10--3----------------
G----12---9---2----------------
D----12---11--4----------------
A----10---9/--2----------------
E------------------------------

part 4

bridge

E------------------------     -------------
B------------------------     -------------
G----14--14--12----------     -----10------
D----14--12--12-------(x3)    -----10------
A----12--13--10----------     -----8-------
E----13--13--11----------     -----9-------
         T
part 5

mini interlude

E-------------------------------------
B-------------------------------------
G----x--x-x--x-x-----x--x-x--x-x------
D----x--x-x--x-x-----x--x-x--x-x------
A----x--x-x--x-x-----x--x-x--x-x------
E----12/212/212----14/214/214-----

part 6

ending/last note

E----5-------
B----3-------
G----2-------
D----4-------
A----2-------
E----2-------



intro

(1)I worry, I weigh three times my body 
   I worry, I throw my fear around
   But this morning, there 

Тональность:

Это должно быть в ТОП-листе! - Топ-лист композиций



Назад
Рекомендуем посмотреть другие песни исполнителя «Mayer John»:

  • Комменты Fb ()
  • Комменты ВК



Добавить в Избранное Браузера
Сохранить здесь Очистить


x

0


+
-

+
-

-

Авторизация





Зарегистрироваться

M

Дата и время

  • 18:23:40
     

Социальные ссылки


Наши приложения

  • Muzbank App Play Market
  • Muzbank Amazon App