MUZBANK


МУЗЫКАЛЬНО-ИНФОРМАЦИОННЫЙ БАНК





MMC 5 • Ramblin Rose (аккорды и текст - chords & lyrics)


444

Print

Видео «Ramblin Rose (MC 5)»

Видео клипы к песне подбираются автоматически сайтом youtube. Возможны некоторые несоответствия клипов песне.

↑ Спрятать рекламу ↑





 


Verse (Drop D Tuning)

e---------------------------------------------------------------------------
B---------------------------------------------------------------------------
G---------------------------------------------------------------------------
D---------------------------------------------------------------------------
A-----------------1--4------------1--4------------1--4----------------------
E--12/---0--1--4---------0--1--4---------0--1--4---------0--1--4------------


e---------------------------------------------------------------------------
B---------------------------------------------------------------------------
G---------------------------------------------------------------------------
D-----------1--4------------1--4--------------------------------------------
A--0--1--4---------0--1--4--------------------------------------------------
E----------------------------------0--1--4----5-3-5-3-5-3-5-3-5-3-5-3-0-----

Solo 1
  
(2:24)
  
e--12--12--12---12--12---12--12----12--12--12----12--12--12---12------------
B--15b-----15b------15b------15b-------15b-------15b-----15b-----15b--pr15r-
G---------------------------------------------------------------------------
D---------------------------------------------------------------------------
A---------------------------------------------------------------------------
E---------------------------------------------------------------------------


e---------------------------------------------------------------------------
B-pr15r-pr15r-pr15r-pr15r-pr15r-pr15r-pr15r-pr15r-pr15r-pr15r-pr15r-pr15r---
G---------------------------------------------------------------------------
D---------------------------------------------------------------------------
A---------------------------------------------------------------------------
E---------------------------------------------------------------------------


e---------------------------------------------12----------15b-12----12-12---
B-pr15r-pr15r-pr15r-pr15r-pr15r-pr15r-pr15r------15p12-----------15---------
G------------------------------------------------------14-------------------
D---------------------------------------------------------------------------
A---------------------------------------------------------------------------
E---------------------------------------------------------------------------

Solo 2

(2:50)

e-12-----------------------------12--12--12---------------------------------
B-15b---12h15p12-----------------12--12--12---------------------------------
G----------------14-12-14--------12--12--12---------------------------------
D-------------------------14p12--12--12--12---12h14p12h14p12h14p12h14p12h14-
A---------------------------------------------------------------------------
E---------------------------------------------------------------------------

 (2:53)

e--12-12-12--12-12--12-12-12-12-12-12-12-12--12-12-12--12-12--12-12-12-12---
B--12-12-12--12-12--12-12-12-12-12-12-12-12--12-12-12--12-12--12-12-12-12---
G--12-12-12--12-12--12-12-12-12-12-12-12-12--12-12-12--12-12--12-12-12-12---
D---------------------------------------------------------------------------
A---------------------------------------------------------------------------
E---------------------------------------------------------------------------

 (2:57)
 
e-12-12-12--10---10---10---10---12---12---12---12----12--12-12--12-12--12---
B-12-12-12--13br-13br-13br-13br-15br-15br-15br-15br--15b-15-15b-15-15b-15---
G-12-12-12------------------------------------------------------------------
D-12-12-12------------------------------------------------------------------
A---------------------------------------------------------------------------
E---------------------------------------------------------------------------


e-12--12-12--12-12--12-12--12-12--12-12-----
B-15b-15-15b-15-15b-15-15b-15-15b-15-15b----
G-------------------------------------------
D-------------------------------------------
A-------------------------------------------
E-------------------------------------------

Outro

 (3:35)

e--12---12---12---12---12---12---12---12---12-------------------------------
B--15br-15br-15br-15br-15br-15br-15br-15br-15-------------------------------
G----------------------------------------------------12-14-12-14b-14-12-14--
D----------------------------------------------12h14------------------------
A---------------------------------------------------------------------------
E---------------------------------------------------------------------------

 (3:41)

e---------------------------------------------------------------------------
B------------------------1210-------12p10----12p10-------------------------
G-12--------------12-14--------12-14-------12-------12----------------------
D----14-----12h14--------------------------------------12h14p12-12h14p12----
A---------------------------------------------------------------------------
E---------------------------------------------------------------------------



e---------------------------------------------------------------------------
B---------------------------------------------------------------------------
G------------------------------------------------12h14p12-------------------
D--12h14p12-12h14p12--12h14p12----------------12-----------14-12------------
A------------------------------14-12-14-12-14-------------------------------
E----------------------------------------------------------------10-7-10-7--

e---------------------------------------------------------------------------
B---------------------------------------------------------------------------
G---------------------------------------------------------------------------
D---------------------------------------------------------------------------
A---------------------------------------------------------------------------
E--10-7-10-7-10-7-10-7-10-7-10-7-10-7-10-7-10-7-10-7-10-7-10--7-10-7-10-7-10


e----------------------------------------------------------------------0----
B----------------------------------------------------------------------0----
G---------------------------------------------------------------7--7---1----
D---------------------------------------------------------------7--7---2----
A---------------------------------------------------------/17---5--5---2----
E-7-10-7-10-7-10-7-10-7-10-7-10-7-10-7-10-7-10-7-10-7-10---------------0----
                            
                                                                        end


Here is a quick guide to how I denote certain actions on the guitar

Slide up = /

Slide Down = 

Bend = b

Pre Bend = pb

Release = r

Hammer On = h

Pull Off = p 

Vibrato = v

Mute = x

Hold Vibrato = v~~~
 

Тональность:

Это должно быть в ТОП-листе! - Топ-лист композиций



Назад

  • Комменты Fb ()
  • Комменты ВК



Добавить в Избранное Браузера
Сохранить здесь Очистить


x

0


+
-

+
-

-

Авторизация





Зарегистрироваться

M

Дата и время

  • 12:28:07
     

Социальные ссылки


Наши приложения

  • Muzbank App Play Market
  • Muzbank Amazon App