MUZBANK



A MOST COMPLETE BANK OF MUSIC INFORMATION

МУЗЫКАЛЬНО-ИНФОРМАЦИОННЫЙ БАНК







    MMeat Puppets • I Quit (аккорды и текст - chords & lyrics)


    315

    Print

    Видео «I Quit (Meat Puppets)»

    Видео клипы к песне подбираются автоматически сайтом youtube. Возможны некоторые несоответствия клипов песне.

    ↑ Спрятать рекламу ↑





     
    
    
    I Quit
    Written by Curt Kirkwood
    Tabbed by: Halvor Wold
    Album: Golden lies
    E-mail: wold.halvor@organizer.net
    
    
    Main Riff:
    -------------|
    -------------|
    -7--7-7/9--7-|
    -7--7-7/9--7-|
    -5--5-5/7--5-|
    -------------|
    
    Verse:
    ----0-----------0-----------0------------0--------|
    ----0-----------1-----------3------------1--------|
    ----0-----------0-----------2------------0--------|
    ----2---------2----2-0^2-0--0---------22----2-0^2-|
    ----2------3-----------------------3--------------|
    -0--0---------------------------------------------|
    
    Third verse:
    ------------------------------------------|
    ------------------------------------------|
    -9-9-9-----5-5-5-----7-7-7-----5-5-5------|
    -9-9-9-----5-5-5-----7-7-7-----5-5-5------|
    -7-7-7-----3-3-3-----5-5-5-----3-3-3------|
    ------------------------------------------|
    
    Chorus:
    ----3------0----0-----------0------0--------------|
    ----0------3--3----3--------0------1----0^1^0-----|
    ----0------2---------2------0------0----------0---|
    ----0------0-----------0----2------2------------0-|
    ----2-----------------------2------3--------------|
    -3--3--------------------0--0---------------------|
    
    Lead:
    --------------------------------------------------------------------|
    -3--------/5----------/7-8---7-53-3----/10-10----5---7-8---7-53-3-|
    --------------------------------------------------------------------|
    --------------------------------------------------------------------|
    --------------------------------------------------------------------|
    --------------------------------------------------------------------|
    
    Please e-mail me for more Meat Puppets tabs!!!
     

    Тональность:

    Это должно быть в ТОП-листе! - Топ-лист композиций



    Назад
    Рекомендуем посмотреть другие песни исполнителя «Meat Puppets»:

    • Комменты Fb ()
    • Комменты ВК



    Добавить в Избранное Браузера
    Сохранить здесь Очистить


    x

    0


    +
    -

    +
    -

    -

    Авторизация





    Зарегистрироваться

    M

    Дата и время

    • 09:42:19
       

    Социальные ссылки


    Наши приложения

    • Muzbank App Play Market
    • Muzbank Amazon App