MUZBANK


МУЗЫКАЛЬНО-ИНФОРМАЦИОННЫЙ БАНК





MMegadeth • Duke Nukem Theme (аккорды и текст - chords & lyrics)


1123

Print

Видео «Duke Nukem Theme (Megadeth)»

Видео клипы к песне подбираются автоматически сайтом youtube. Возможны некоторые несоответствия клипов песне.

↑ Спрятать рекламу ↑





 


Artist:	Megadeth
Album:	-
Song:	Duke Nukem Theme

MEGADETH - DUKE NUKEM THEME

Tabbed by Eray Berger (erayberger@hotmail.com)


E------------------|
B------------------|
G------------------|
D--222-222-222-333-|  (x2)      
A--222-222-222-333-|  
E--000-000-000-111-|     

E-----------------------------------------------               ------|
B-------------- (3 times) ----------------------               ------|
G-----------------------------------------5-5-5-               -5-55-|
D--2-5-7------7-9------9-10---------------5-5-5-  4th time ->  -5-55-|
A--2-5-7------7-9------9-10-----3-2-------3-5-3-               -5-35-|
E--0-3-5-00-0-5-7-00-0-7--8-000-----5-3-5-------               ------|
      PM .. .     .. .      ...

E------------------|
B------------------|
G------------------|
D--333-333-333-333-|
A--333-333-333-333-|
E--111-111-111-111-|

E--------------------------------------|----------------------------------|
B--------------------------------------|----------------------------------|
G--------------------------------------|----------------------------------|
D--------------------------------------|----------------------------------|
A------2------0------2------0----------|-----2------0------2--------------|
E--0-0-0--0-0-0--0-0-0--0-0-0--0-0-000-|-0-0-0--0-0-0--0-0-0--0-0-000-000-|
 PM. .    . .    . .    . .    . . ...   . .    . .    . .    . . ... ...

E--------------------------------------|-----------------------------------|
B--------------------------------------|-----------------------------------|
G--------------------------------------|-----------------------------------|
D--------------------------------------|-----------------------------------|
A------2------0------2------0----------|-----2------0----------------------|
E--0-0-0--0-0-0--0-0-0--0-0-0--0-0-000-|-0-0-0--0-0-0--0-0-000-000-000-000-|
 PM. .    . .    . .    . .    . . ...   . .    . .    . . ... ... ... ...

E------------------------------------------------------|
B------------------------------------------------------|
G--4---5--2-2-------4b>(1/2)= up 
D-------------5-4-5---------------5-5-2--5----4--------|           , (1/2)





/DUKE NUKEN THEME Tab - Megadeth/

	   
 p = pull off 
 x = palm mute 
 s = slide 
 
  b 
xx(xx) = bend up 
 
  b 
(xx)xx = bend down 
 
-|------------------|--------------------||------------------------------------ 
-|------------------|--------------------||------------------------------------ 
-|------------------|--------------------||------------------------------------ 
-|------------------|--------------------||-------2-------2---4-------4---5---- 
-|-2-2--2----2-2--2-|--2-2--2----3-3--3--||-------0-------0---2-------2---3---- 
-|-0-0--0----0-0--0-|--0-0--0----1-1--1--||-0-3-0---0-0-0---0---0-0-0---0---0-- 
                                                   x x x   x   x x x   x   x 
 
------------------3-3-3-||-3-3-3--------------------------------------------||- 
------------------3-3-3-||-3-3-3--------------------------------------------||- 
------------------5-5-5-||-5-5-5--------------------------------------------||- 
------------------5-5-5-||-5-5-5--------------------------------------------||- 
-----2h3p2--------3-3-3-||-3-3-3--3-3--33----3-3--3----3-3--3----3-3--3-----||- 
-0-0-------5-3-1--------||--------1-1--11----1-1--1----1-1--1----1-1--1-----||- 
 x x 
 
---------------------------------|-------------------------------------------|- 
---------------------------------|-------------------------------------------|- 
---------------------------------|-------------------------------------------|- 
---------------------------------|-------------------------------------------|- 
---------------------------------|-------------------------------------------|- 
-0-0-0-0-0-0-0-0-0-0-0-0-0-0-000-|-0-0-00-0-0-0-0-0-0-0-0-0-000-000----------|- 
 x x   x x   x x   x x   x x xxx   x x   x x   x x   x x x xxx xxx 
 
---------------------------------|-------------------------------------------|- 
---------------------------------|-------------------------------------------|- 
---------------------------------|-------------------------------------------|- 
---------------------------------|-------------------------------------------|- 
---------------------------------|-------------------------------------------|- 
-0-0-0-0-0-0-0-0-0-0-0-0-0-0-000-|-0-0-00-0-0-0-0-0-000-000-000-000----------|- 
 x x   x x   x x   x x   x x xxx   x x   x x   x x xxx xxx xxx xxx 
 
------------------------------------------------|------------------------------ 
------------------------------------------------|------------------------------ 
------------------------------------------------|----------b-------------------- 
-9--9-9--9--9--10-10-10--7--7-7--7--7-----------|-9-9-9-9-9(10)-9-7------------ 
---------------------------------------110-9-10-|-------------------10-10-7---- 
------------------------------------------------|------------------------------ 
 
 
------------------|-------------------b-----------------------------|---------- 
------------------|-12-12-12-12-12--12(113)-10-10-10-10-10----------|-12-12---- 
------------------|----------------------------------------12-11-12-|---------- 
------b-----------|-------------------------------------------------|---------- 
-10-10(12)10-9----|-------------------------------------------------|---------- 
------------------|-------------------------------------------------|---------- 
 
 
-----------------------------------------|----------------------------------|-- 
-12-12-12(13)12-10-----------------------|----------------------------------|-- 
---------------------12-9-12-(14)12-11---|----------------------------------|-- 
-----------------------------------------|----------------------------------|-- 
-------------------------10----10-----5--|-3-3--3--3-3--3----3-3--3--3-3--3-|-- 
---------------------8-8-8-8-8-8--8-8-7--|-1-1--1--1-1--1----1-1--1--1-1--1-|-- 
 
 
------------------------------------------------------------------------------- 
------------------------------------------------------------------------------- 
------------------------------------------------------------------------------- 
-------2-------2---3----------same riff  as before----------------------------- 
-------0-------0---1----------------------------------------------------------- 
-0-3-0---0-0-0---0---0-0-0----------------------------------------------------- 
 
    1st and 2nd guitar 
-|--------------------b--------------------------------------------------b----- 
-|-12-12--12--12-12-12(13)--10-10--10--110-10------------12-12--12--12-12(13)-- 
-|--------------------b------------------------12-11-12------------------b----- 
-|-9--9---9---9--9---9(10)--7--7---7---77--7-------------9--9---9---9---9(10)-- 
-|---------------------------------------------10-9--10------------------------ 
-|----------------------------------------------------------------------------- 
 
                                                     b 
--------------------------------|-19-19---19--19-19-19(20)--17-17--17--17-17--- 
-12-10--------------b-----------|-12-12---12--12-12-12(13)--10-10--10--10-10--- 
-------12-12p9-12-12(14)12-11---|---------------------------------------------- 
-9--7---------------b-----------|---------------------------------------------- 
-------10-10p7-10-10(12)10-9----|---------------------------------------------- 
--------------------------------|---------------------------------------------- 
 
                           b 
-----------19-19--19--19-19(20)-19-17----------------b--------------|---------- 
-20-19-20--12-12--12--12-12(13)-12-10-200-20p17-20-20(22)20-19------|---------- 
-12-11-12-----------------------------122-12p9--12-12(14)12-11------|---------- 
--------------------------------------------------------------------|---------- 
--------------------------------------------------------------------|---------- 
--------------------------------------------------------------------|---------- 
 
with wah wah    1st guitar 
------------|------------------------------------------------------------------ 
------------|-15-***--20---------15-***---20---------15-***--20--------3-4-6--- 
-----14-----|-19-***------3-5-6--19-***-------3-5-6--19-***------3-5-6--------- 
-13------12-|------------------------------------------------------------------ 
------------|----*** = play as much notees as you think is needed-------------- 
------------|------------------------------------------------------------------ 
 
                    b      b      b      b       b       
-3-6-8-9-10-11-12-12(13)-12(13)-12(13)-112(14)---9(11)---(11)--(11)9---(11)---- 
------------------------------------------------------------------------------- 
------------------------------------------------------------------------------- 
------------------------------------------------------------------------------- 
------------------------------------------------------------------------------- 
------------------------------------------------------------------------------- 
 
                  b                      b 
--(11)-9p8-9----12(13)--(13)-(13)-(13)-113(14)-13-11----------------b---------- 
------------------------------------------------------14-14p11-14-14(16)14-13-- 
------------------------------------------------------------------------------- 
------------------------------------------------------------------------------- 
------------------------------------------------------------------------------- 
------------------------------------------------------------------------------- 
 
 
---s----------s----------s---------s----------4-1------------------------------ 
-16/17***---14/15***---12/13***---9/10****--------4-1-----4-1------------------ 
-16/17***---14/15***---12/13***---9/10****------------3-1-----3-1-----3-1------ 
------------------------------------------------------------------3-1-----3-1-- 
------------------------------------------------------------------------------- 
------------------------------------------------------------------------------- 
 
 
------------------------------------------------------------------------------- 
------------------------------------------------------------------------------- 
------------------------------------------------------------------------------- 
-----3-1----------------------------------------------------------------------- 
-3-1-----3-1------------------------------------------------------------------- 
-------------4-0-1------------------------------------------------------------- 
 

Тональность:

Это должно быть в ТОП-листе! - Топ-лист композиций



Назад
Рекомендуем посмотреть другие песни исполнителя «Megadeth»:

  • Комменты Fb ()
  • Комменты ВК



Добавить в Избранное Браузера
Сохранить здесь Очистить


x

0


+
-

+
-

-

Авторизация





Зарегистрироваться

M

Дата и время

  • 07:04:02
     

Социальные ссылки


Наши приложения

  • Muzbank App Play Market
  • Muzbank Amazon App