MUZBANK


МУЗЫКАЛЬНО-ИНФОРМАЦИОННЫЙ БАНК





MMegadeth • Moto Psycho (аккорды и текст - chords & lyrics)


492

Print

Видео «Moto Psycho (Megadeth)»

Видео клипы к песне подбираются автоматически сайтом youtube. Возможны некоторые несоответствия клипов песне.

↑ Спрятать рекламу ↑





 


Riff A)
e---------------------------------------------------
B---------------------------------------------------
G---------------------------------------------------
D---------------------------------------------------
A------------------------------------------------3-1
E--3-3-3-3-3--3-3-3-3-3--3-3-3-3-3--3-3-3-3-3-1-3---
   ***Pm**    ***Pm**    ****Pm*    ****Pm* 

Riff B)
e----------------------------------
B--------------------------------------------------
G-9------------------------7-----------------------
D-x Tremlo picking (2bars)-x-tremlo picking (2 Bars)
A-7------------------------5-----------------------
E--------------------------------------------------

Riff C)
e------------------------------------------
B------------------------------------------
G------------------------------------------
D------------------------------------------
A------------------------------------5-3---
E--3--333--333--33-3-1--3-333-333-33-3-1---
Pm *  ***  ***  **      * *** *** **

And the order

a x8
b x1
a x2 (w/solo)
b x1
c x4
Pause (this is a simple fill. u can do this urselves)
a x4
b x1
a x2(w/solo)
b x1
c x4
a x2
b x1
c x8 (i think i cant remember)

Responsibility, an anchor around my neck
Dependability, made me a nervous wreck
Accountability, I live from check to check
Volatility, neglect and no respect

Got my wheels in motion and I got a path to beat
I hit the road to "I don't know" and
look for "Tough Shit Street"

Solo - Pitrelli

One-way ticket nowhere there's no windows on this train
Can't see where I'm headed but I'm going there again

Moto Psycho
Going nowhere everybody is a
Moto Psycho move it or lose it baby
Going nowhere 100 miles an hour
Moto Psycho I'm a Moto Psycho
Moto Psycho

You know you can't resist to tell me what I mean
You gave my mind a twist said that I was unclean
The actor runs the play and ad-libs in between
You're all that I resent my thoughts were so obscene

Got my wheels in motion and I got a path to beat
I hit the road to "I don't know" and
look for "Tough Shit Street"

Solo - Mustaine

One-way ticket nowhere there's no windows on this train
Can't see where I'm headed but I'm going there again

Moto Psycho
Going nowhere everybody is a
Moto Psycho move it or lose it baby
Going nowhere 100 miles an hour
Moto Psycho I'm a Moto Psycho

One-way ticket nowhere there's no windows on this train
Can't see where I'm headed but I'm going there again

Moto Psycho
Going nowhere everybody is a Moto Psycho
Going nowhere move it or lose it baby Moto Psycho
Going nowhere 100 miles an hour Moto Psycho
Where I'm headed I don't know but I'm shoving off and
I hit the road
Going nowhere everybody is a Moto Psycho -
time and time and time again I'm a
Moto Psycho
Moto Psycho move it or lose it baby
Going nowhere 100 miles an hour
Moto Psycho I'm a Moto Psycho




e:-------------------------------------------------------:
B:-------------------------------------------------------:
G:-------------------------------------------------------:
D:-------------------------------------------------------:
A:----------------------------------------------1---3-1--:
E:--1-3-3-3-3--1-3-3-3-3--1-3-3-3-3--1-3-3-3-3----3------:
    pm=====    =======    =======    =======      =
 
e:-------------------------------------------------------------:
B:-------------------------------------------------------------:
G:-------------------------------------------------------------:
D:-------------------------------------------------------------:
A:--6-6-6-6-6-6-6-6-6-6-6-6-6-6-6-6-6-6-6-6-6-6-6-6-6-6-6-6-6--:
E:-------------------------------------------------------------:
 
e:---------------------------------------------------------------------:
B:---------------------------------------------------------------------:
G:---------------------------------------------------------------------:
D:-------------------------------------------------------------7--X-7--:
A:--5-5-0-3-3-3-3-3-3-3-3-3-3-3-3-3-3-3-3-3-3-3-3-3-3-3-3-3-3--5--X-5--:
E:---------------------------------------------------------------------:
 
     1 ~~~~~           1 1/2         1
e:-----------15-------------------------------------15--19^15----19^15--:
B:--10b---------18^15--20b----(20)--18b--18------18-----------18--------:
G:----------------------------------------------------------------------:
D:----------------------------------------------------------------------:
A:----------------------------------------------------------------------:
E:----------------------------------------------------------------------:
 
                                                              ~~~        ~~~
e:-----18----15^18^15----15----------------15-------------------------------:
B:--18----18----------18----18-17-15----------------------------------------:
G:-----------------------------------17^18----18-17-15----17-15-------------:
D:-----------------------------------------------------17---------17-15-17--:
A:--------------------------------------------------------------------------:
E:--------------------------------------------------------------------------:
 
              w/ wah-wah
e:---------:---------------------------:-----------------------------------:
B:---------:--16----------16----16-----:--------16----16-------------------:
G:---------:-----15----------------15--:-----------------15----------------:
D:--(17)\--:--------17-15----17--------:--17-15----17-------17-15----------:
A:---------:---------------------------:-----------------------------------:
E:---------:---------------------------:-----------------------------------:
:
:
:
e:-------------------------------------:-----------------------------------:
B:-------------------------------------:-----------------------------------:
G:-------------------------------------:-----------------------------------:
D:-------------------------------------:-----------------------------------:
A:--6-6-6-6-6-6-6-6-6-6-6-6-6-6-6-6----:--6-6-6-6-6-6-6-6-6-6-6-6-6-5-5-0--:
E:-------------------------------------:-----------------------------------:
 
      w/ wah-wah
e:-----------------------------------:------------------------------:
B:-----------------------------------:------------------------------:
G:--17-15---------------17--15-------:--17------------18-15---------:
D:---------17-15-17--17--------------:-----15--17--17-------17-15---:
A:-----------------------------------:------------------------------:
E:-----------------------------------:------------------------------:
:
:
:
e:-----------------------------------:------------------------------:
B:-----------------------------------:------------------------------:
G:-----------------------------------:------------------------------:
D:-----------------------------------:----------------------7--x-7--:
A:--3-3-3-3-3-3-3-3-3-3-3-3-3-3-3-3--:--3-3-3-3-3-3-3-3-3-3-5--x-5--:
E:-----------------------------------:------------------------------:
 
   wah off
e:----------------------------:-----------------------:
B:----------------------------:-----------------------:
G:--12----12----12----12------:--12----12----12----12-:
D:----------------------------:-----------------------:
A:----------------------------:-----------------------:
E:----------------------------:-----------------------:
:
:
:
e:----------------------------:-----------------------:
B:----------------------------:-----------------------:
G:----------------------------:-----------------------:
D:-------------------------3--:----------------3------: x2
A:-------------------------1--:----------------1---3--:
E:--3--3-3-3--3-3-3--3-3-3----:--3--3-3-3--3-3-----1--:
    pm==================         pm===========
                                            * =echo repeats
e:-----------------------------------------------------------------------:
B:-----------------------------------------------------------------------:
G:-----------------------------------------------------------------------:
D:-------------------------3----------------3----------------------3-----:
A:-------------------------1----------------1---3---5---4---3------1--3--:
E:--3--3-3-3--3-3-3--3-3-3----3--3-3-3--3-3-----1---3---2---1---------1--:
    pm==================      pm===========
 
e:-------------------------------------------------------:
B:-------------------------------------------------------:
G:-------------------------------------------------------: x4
D:-------------------------------------------------------:
A:----------------------------------------------1---3-1--:
E:--1-3-3-3-3--1-3-3-3-3--1-3-3-3-3--1-3-3-3-3----3------:
    pm=====    =======    =======    =======      =
 
e:-------------------------------------------------------------:
B:-------------------------------------------------------------:
G:-------------------------------------------------------------:
D:-------------------------------------------------------------:
A:--6-6-6-6-6-6-6-6-6-6-6-6-6-6-6-6-6-6-6-6-6-6-6-6-6-6-6-6-6--:
E:-------------------------------------------------------------:
 
e:---------------------------------------------------------------------:
B:---------------------------------------------------------------------:
G:---------------------------------------------------------------------:
D:-------------------------------------------------------------7--X-7--:
A:--5-5-0-3-3-3-3-3-3-3-3-3-3-3-3-3-3-3-3-3-3-3-3-3-3-3-3-3-3--5--X-5--:
E:---------------------------------------------------------------------:
 
w/ wah-wah 1/2         1/2        1/2
e:-------------------------------------------------------------:
B:--3^6^3-------3^6^3-------3-6^3------6^3--3--6^3-----6^3--3--:
G:----------6b----------6b---------6b---------------6----------:
D:-------------------------------------------------------------:
A:-------------------------------------------------------------:
E:-------------------------------------------------------------:
:
:
:
e:-----------------------------------------------:
B:-----------------------------------------------:
G:-----------------------------------------------:
D:-----------------------------------------------:
A:-----------------------------------------------:
E:--1--3--3--3--3---1--3--3--3--3---1--3--3--3---:
    pm========      pm========      pm========
                                           ~~~~
e:----5^3^5^3----------------------------------:
B:--3---------6^5^3--5--6^5^3------------------:
G:----------------------------3---5^4^3---3----:
D:------------------------------5-------5------:
A:---------------------------------------------:
E:---------------------------------------------:
:
:
:
e:------------------------------:
B:------------------------------:
G:------------------------------:
D:------------------------------:
A:--------------------1---3--1--:
E:--3---1--3--3--3--3---3-------:
        pm========      =
     1              1          1/2
e:-------15--------------------------------------:
B:----------18^15--18b--18^15--------------------:
G:--17b------------------------17b--18^17^15-----:
D:-------------------------------------------17--:
A:-----------------------------------------------:
E:-----------------------------------------------:
:
:
:
e:----------------------------------------------:
B:----------------------------------------------:
G:----------------------------------------------:
D:----------------------------------------------:
A:----------------------------------------------:
E:--1--3--3--3--3---1--3--3--3--3---1--3--3--3--:
    pm========      ==========      ==========
 
e:--20-18-15-15-----------------------------:
B:--------------18-15-----------------------:
G:--------------------18-17-15--------------:
D:-----------------------------17-16-15-13--:
A:------------------------------------------:
E:------------------------------------------:
:
:
:
e:--------------------------------:
B:--------------------------------:
G:--------------------------------:
D:--------------------------------:
A:---------------------1----3--1--:
E:--3---1--3--3--3--3----3--------:
        pm========       =
 
e:-------------------------------------------------------------:
B:-------------------------------------------------------------:
G:-------------------------------------------------------------:
D:-------------------------------------------------------------:
A:--6-6-6-6-6-6-6-6-6-6-6-6-6-6-6-6-6-6-6-6-6-6-6-6-6-6-6-6-6--:
E:-------------------------------------------------------------:
 
e:---------------------------------------------------------------------:
B:---------------------------------------------------------------------:
G:---------------------------------------------------------------------:
D:-------------------------------------------------------------7--X-7--:
A:--5-5-0-3-3-3-3-3-3-3-3-3-3-3-3-3-3-3-3-3-3-3-3-3-3-3-3-3-3--5--X-5--:
E:---------------------------------------------------------------------:
 
e:----------------------------:-----------------------:
B:----------------------------:-----------------------:
G:----------------------------:-----------------------:
D:-------------------------3--:----------------3------: x3
A:-------------------------1--:----------------1---3--:
E:--3--3-3-3--3-3-3--3-3-3----:--3--3-3-3--3-3-----1--:
    pm==================         pm===========
 
e:-------------------------------------------------------:
B:-------------------------------------------------------:
G:-------------------------------------------------------:
D:-------------------------------------------------------: x2
A:----------------------------------------------1---3-1--:
E:--1-3-3-3-3--1-3-3-3-3--1-3-3-3-3--1-3-3-3-3----3------:
    pm=====    =======    =======    =======      =
 
e:-------------------------------------------------------------:
B:-------------------------------------------------------------:
G:-------------------------------------------------------------:
D:-------------------------------------------------------------:
A:--6-6-6-6-6-6-6-6-6-6-6-6-6-6-6-6-6-6-6-6-6-6-6-6-6-6-6-6-6--:
E:-------------------------------------------------------------:
 
e:---------------------------------------------------------------------:
B:---------------------------------------------------------------------:
G:---------------------------------------------------------------------:
D:-------------------------------------------------------------7--X-7--:
A:--5-5-0-3-3-3-3-3-3-3-3-3-3-3-3-3-3-3-3-3-3-3-3-3-3-3-3-3-3--5--X-5--:
E:---------------------------------------------------------------------:
 
e:----------------------------:-----------------------:
B:----------------------------:-----------------------:
G:----------------------------:-----------------------:
D:-------------------------3--:----------------3------: x10 and then fades
A:-------------------------1--:----------------1---3--:
E:--3--3-3-3--3-3-3--3-3-3----:--3--3-3-3--3-3-----1--:
    pm==================         pm===========

 

Тональность:

Это должно быть в ТОП-листе! - Топ-лист композиций



Назад
Рекомендуем посмотреть другие песни исполнителя «Megadeth»:

  • Комменты Fb ()
  • Комменты ВК



Добавить в Избранное Браузера
Сохранить здесь Очистить


x

0


+
-

+
-

-

Авторизация





Зарегистрироваться

M

Дата и время

  • 23:51:59
     

Социальные ссылки


Наши приложения

  • Muzbank App Play Market
  • Muzbank Amazon App