MUZBANK


МУЗЫКАЛЬНО-ИНФОРМАЦИОННЫЙ БАНК





MMegadeth • She Wolf (аккорды и текст - chords & lyrics)


711

Print

Видео «She Wolf (Megadeth)»

Видео клипы к песне подбираются автоматически сайтом youtube. Возможны некоторые несоответствия клипов песне.

↑ Спрятать рекламу ↑





Em
The mother of all that is evil
Her lips are poisonous venom
Cm     Eb         Cm     Bb H  Cm
Wicked temptress, knows how to please
The priestess roars, "Get down on your knees"

The rite of the praying mantis
Kiss the bones of the enchantress
Spellbound, searching through the night
A howling man surrenders the fight

G F Bb
the fight...

Cm        Bb
One look in her lusting eyes
F           G#
Savage fear in you will rise
Cm        Bb
Teeth of terror sinking in
F                G
The bite of the she-wolf

My desires of flesh obey me
The lioness will enslave me
Another heart beat than my own
The sound of claws on cobblestone, I'm stoned

Beware what stalks you in the night
Beware the she-wolf and her bite
Her mystic lips tell only lies
Her hidden will to kill in disguise


One look in her lusting eyes
Savage fear in you will rise
Teeth of terror sinking in
The bite of the she-wolf

Riff 1
Guitar 1
e|---------------------------------|
B|---------------------------------|
G|---------------------------------|
D|---------------------------------|
A|---------------------------------|
E|-0-000-0-000-0-000-0-000-000-000-|




Guitar 2 fill 1:
e|---------------------------------|
B|-14b15r14\-----------------------|
G|-14b15r14\-----------------------|
D|---------------------------------|
A|---------------------------------|
E|---------------------------------|
 
 
Riff 2
e|----------------------------------------------|
B|----------------------------------------------|
G|-----0-------0--------------------------------|
D|-5---5---5---5---5--3-4-5\--3-4-5\--3-4-5-3-4-|
A|-3---6---3---6---3--1-2-3\--1-2-3\--1-2-3-1-2-|
E|----------------------------------------------|
                      * *     * *     * *   * *
  "Wicked temptress...."
e|---------------------------------|
B|---------------------------------|
G|---------------------------------|
D|-5-------------------------------|
A|-3-333-3-333-3-333-3-333-333-333-|
E|---------------------------------|
     *** * *** * *** * *** *** ***



Guitar 2 fill 1:
e|-------------------------|
B|-------------------------|
G|------------------7b8~~--|
D|-----5b8*--------(8)r5*--|
A|-------------------------|
E|-------------------------|
 
e|----------------------------------------------|
B|----------------------------------------------|
G|-----0-------0--------------------------------|
D|-5---5---5---5---5--3-4-5\--3-4-5\--3-4-5-4-3-|
A|-3---6---3---6---3--1-2-3\--1-2-3\--1-2-3-2-1-|
E|----------------------------------------------|
                      * *     * *     * *   *
  "Priestess roars..."



Riff 3
Guitar 1
e|------------------------|
B|------------------------|
G|------------------------|
D|-----------------8------|
A|-5--------3------6------|
E|-3--------1------6------|
  "The fight...."
 
Guitar 2
e|------------------------------------------------------|
B|------------------------------------------------------|
G|------------------------------------------------------|
D|--------------------3-----3---5p3~---5--6-5~--6--8-10-|
A|------------3---4h5---4h5---5-------------------------|
E|-3~~--3-6-3---3---------------------------------------|
        * * * * *
 
Riff 4
Guitar 1
e|--------------------------------------------------|
B|--------------------------------------------------|
G|--------------------------------------------------|
D|-5----3---------8----5----3-----------------------|
A|-3----1----3----6----3----1----3----5---5-6-5-3---|
E|-----------1----6--------------1----3-----------6-|
  "One look in her..."
 
Guitar 2
e|-----------------------------------|
B|-----------------------------------|
G|-----------------------------------|
D|-10-10p8----10-8~~-----------------|
A|---------10----------8-8p6---8-6~~-|
E|---------------------------8-------|
 
e|----------------------------------|
B|----------------------------------|
G|----------------------------------|
D|-10-10p8----10-8~~----------------|
A|---------10----------8-8p6-8-/10~-|
E|----------------------------------|
 
Guitar 1
e|----------------------------------------------------|
B|----------------------------------------------------|
G|----------------------------------------------------|
D|-5----3---------8----5----3-------------------------|
A|-3----1----3----6----3----1----3----5---5-6-5p3-5p3-|
E|-----------1----6--------------1----3---------------|
  "One look in her..."
 
Guitar 2
e|-----------------------------------|
B|-----------------------------------|
G|-----------------------------------|
D|-10-10p8----10-8~~-----------------|
A|---------10----------8-8p6---8-6~~-|
E|---------------------------8-------|
 
e|----------------------------------|
B|----------------------------------|
G|----------------------------------|
D|-10-10p8----10-8~~----------------|
A|---------10----------8-8p6-8-/10~-|
E|----------------------------------|








Outro Solo

Guitar 1:
|---------------------------------|-6----------------------|
|--------3-4-6----4-3-4---3-------|-----9-8-6-9-8-6--------|
|-/5------------------------5-3---|-----------------8------|
|---------------------------------|-------------------6----|
|---------------------------------|------------------------|
|---------------------------------|------------------------|

|----------------|-------------------------------|
|----------------|-------------------------------|
|----------------|-------------------------------|
|------8------6--|-----5---5---5-6-5-8---6---6-8-|
|-8-10----6-8----|-6-8---8---8---------8---8-----|
|----------------|-------------------------------|

Part A
Harmony w/ Guitar 2

|---------------------------------|-6----------------------------|----------- /
|--------3-4-6----4-3-4---3-------|-----9-8-6-9-8-6--------------------------- / 
|-/5------------------------5-3---|--------------------8---------|   Guitar 1 /
|---------------------------------|------------------------6-----| ----------- /
|---------------------------------|------------------------------|------------ /
|---------------------------------|------------------------------------------- /
|                                 |                              |
|---------------------------------|10----------------------------|----------- /
|--------6-8-9----8-6-8---6-------|----13-11-9-13-11-9------------------------ / 
|-/8------------------------8-7---|------------------------------------------- /  
|---------------------------------|--------------------13-10-----|  / Guitar 2 /
|---------------------------------|------------------------------|------------ /
|---------------------------------|------------------------------------------- /

|-----------------------------------------------|----------- /
|------------------------------------------------------------ / 
|-----------------------------------------------|   Guitar 1 /
|------8------6-------5---5---5-6-5-8---6---6-8-| ----------- /
|-8-10----6-8-----6-8---8---8---------8---8-----|------------ /
|------------------------------------------------------------ /
|                                               |
|-----------------------------------------------|----------- /
|------------------------------------------------------------ / 
|------7------5-------4---4---4-5-4-7---5---5-7-------------- /  
|-8-10----6-8-----5-6---6---6---------6---6-----|  / Guitar 2 /
|-----------------------------------------------|------------ /
|------------------------------------------------------------ /

Part B
In the first two bars Guitar 1 and 2 harmonise. In the last two bars,
Guitar 3 is overdubbed to harmonise with Guitar 1 and 2.
Do Not play Guitar 3 in First two bars.

|----------------------------------------------------------------|----------- /
|----------------------------------------------------------------------------- / 
|-----8-7----7-8-----8-7----7-8-----8-7----7-8-----8-7----7-8----|   Guitar 1 /
|-10------10------8------10------6------10-------------10--------| ----------- /
|----------------------------------------------10----------------|------------ /
|----------------------------------------------------------------------------- /
|                                                                |
|----------------------------------------------------------------|----------- /
|-----8-6----6-8-----8-6----6-8-----8-6---6-8------8-6----6-8----------------- / 
|--8------8-------7------8-------5------8--------------8---------------------- /  
|----------------------------------------------9-----------------|  / Guitar 2 /
|----------------------------------------------------------------|------------ /
|----------------------------------------------------------------------------- /
|                                                                |
|-----8-6---6-8------8-6----6-8-----8-6---6-8------8-6----6-8----|----------- /
|--8------8-------6------8--------------8--------------8---------------------- / 
|--------------------------------8-------------7------------------------------ /  
|----------------------------------------------------------------|  / Guitar 3 /
|----------------------------------------------------------------|------------ /
|----------------------------------------------------------------------------- /

Part C
Repeat Twice
|------------------------------------------------------------|----------- /
|------------------------------------------------------------------------- / 
|*-5----8--8--8---7h8p7p5----8-----8--8--8---7h8p7p5----8----|   Guitar 1 /
|*------------------------------8-------------------------6--| ----------- /
|------------------------------------------------------------|------------ /
|------------------------------------------------------------------------- /
|                                                            |
|------------------------------------------------------------|----------- /
|------------------------------------------------------------------------- / 
|*-8---12-12-12--10h12p10p8-12----12-12-12--10h12p10p8-12----|   Guitar 2 /
|*-----------------------------12-------------------------10-| ----------- /
|------------------------------------------------------------|------------ /
|------------------------------------------------------------------------- /


|-----------------------------------------------------------|----------- /
|------------------------------------------------------------------------ / 
|-8--8--8---7h8p7p5----8-----8--8--8---7h8p7p5----8-[5]----*|   Guitar 1 /
|-------------------------5--------------------------------*| ----------- /
|-----------------------------------------------------------|------------ /
|------------------------------------------------------------------------ /
|                                                           |
|-----------------------------------------------------------|----------- /
|------------------------------------------------------------------------ / 
|12-12-12--10h12p10p8-12----12-12-12--10h12p10p8-12-[12]---*|   Guitar 2 /
|-------------------------9--------------------------------*| ----------- /
|-----------------------------------------------------------|------------ /
|------------------------------------------------------------------------ /

The notes in the [brackets] are the first notes of the second bar, respectively.
********************************************

Rhythm parts 

Standard Tuning

Intro & Verse
|---------------------------------|
|---------------------------------|
|---------------------------------|
|---------------------------------|
|---------------------------------|
|-0-000-0-000-0-000-0-000-000-000-|

Pre-Chorus
e)----------------------------------------------------------------|
B)----------------------------------------------------------------|
G)----------------------------------------------------------------|
D)---------8----------8-------------------------------------------|
A)--10----10---10----10---10----8-9--10----8-9--10-----8-9--10--|
E)---8----11----8----11----8----6-7---8----6-7---8-----6-7---8--|

e)----------------------------------------------------------------|
B)----------------------------------------------------------------|
G)----------------------------------------------------------------|
D)----------------------------------------------------------------|
A)--8-9--10-------------------------------------------------------|
E)--6-7---8---8-8-8-8---8--8-8-8---8--8-8-8---8-8-8--8-8-8--8-8-8-|

2nd time:
e)---------------------------------|
B)---------------------------------|
G)---------------------------------|
D)---------------------------------|
A)--8-9--10-----9---8------2-------|
E)--6-7---8-----7---6------0-------|

Chorus
e)------------------------------------------------------------------|
B)------------------------------------------------------------------|
G)---5-----3-------------------------5-----3------------------------|
D)---5-----3------3------8-----------5-----3------3------5----------|
A)---3-----1------3------6-----------3-----1------3------5----------|
E)----------------1------6------------------------1------3-----0----|

e)----------------------------------|
B)----------------------------------|
G)----------------------------------|
D)------------------------1---------|
A)-----5-/-6--5----3-----1---------|
E)-----3-/-4--3----1---------------|


Interlude
|-----------------------------------------------------------------------------------|
|-----------------------------------------------------------------------------------|
|-5-------------------3--------------------------------------------------3--------4-|
|-5-------------------3-------------------6-------------------5----------3--------4-|
|-3-----3-3-3-3-3-3-3-1-----1-1-1-1-1-1-1-6-------------------5----------1--1-1-1-2-|
|-----------------------------------------4-----4-4-4-4-4-4-4-3--3-3-3-3------------|

Solo Rhythm
|--------------------------------------------------------------------------------|
|--------------------------------------------------------------------------------|
|-5------------------------3-----------------------------------------------------|
|-5------------------------3-------------------------6---------------------------|
|-3---3-3-3-3-3-3-3-3--3-3-1---1-1-1-1-1-1-1-1-1-1-1-6---------------------------|
|----------------------------------------------------4---4-4-4-4-4-4-4-4-4-4-4-4-|

|-------------------------------|
|-------------------------------|
|-----------------3-----------4-|
|-5---------------3-----------4-|
|-5---------------1-1-1-1-1-1-2-|
|-3---3-3-3-3-3-3---------------|

Outro Rhythm
|-------------------------------------------------------|
|-------------------------------------------------------|
|-5-------------3---------------------------------------|
|-5-------------3-------------6-------------5---------4-|
|-3---3-3-3-3-3-1---1-1-1-1-1-6-------------5---------2-|
|-----------------------------4---4-4-4-4-4-3---3-3-3---|

Tab notation-
p - pull off
h -hammer on
/ - slide rom below (5/7)
 - slide from above(75)

Тональность:

Это должно быть в ТОП-листе! - Топ-лист композиций



Назад
Рекомендуем посмотреть другие песни исполнителя «Megadeth»:

  • Комменты Fb ()
  • Комменты ВК



Добавить в Избранное Браузера
Сохранить здесь Очистить


x

0


+
-

+
-

-

Авторизация





Зарегистрироваться

M

Дата и время

  • 17:27:56
     

Социальные ссылки


Наши приложения

  • Muzbank App Play Market
  • Muzbank Amazon App