MUZBANK


МУЗЫКАЛЬНО-ИНФОРМАЦИОННЫЙ БАНК





MMegadeth • Time: the beginning (аккорды и текст - chords & lyrics)


1381

Print

Видео «Time: the beginning (Megadeth)»

Видео клипы к песне подбираются автоматически сайтом youtube. Возможны некоторые несоответствия клипов песне.

↑ Спрятать рекламу ↑





Father time, I'm running late
I'm winding down, I'm growing tired
Seconds drift into the night
The clock just ticks till my time expires

You were once my friend
Now I know I can't tie your hands

The days I saved I couldn't spend
They fell like sand through the hourglass
No time to lose, no time to choose

[Chorus]
Time taking time, it's taken mine
Scenes of my life seem so unkind
Time chasing time creeps up behind
I can't run forever, and time waits for no one
Not even me

An enemy I can't defend
My final place a deadly end
Life's just a speck in space
Dreams of an eternal resting place

I can't get any younger
Time has brutal hunger 



Guitar Tab:

Riff:  x3
e|--0----0-0----0--0-0--0-0-0-0--|
B|--0----0-0----0--0-0--0-0-0-0--|
G|--2----0-0----0--0-0--0-0-0-0--|
D|--2----2-2----2--2-2--2-2-4-2--|
A|--2----2-2----2--2-2--2-2-2-2--|
E|--0----0-0----0--0-0--0-0-0-0--|
 
e|--0----0-0----0--0-0--0-0-0-0--|
B|--0----0-0----0--0-0--0-0-0-0--|
G|--0----0-0----0--0-0--0-0-0-0--|
D|--4----2-2----2--2-2--2-2-2-2--|
A|--2----2-2----2--2-2--2-2-2-2--|
E|--0----0-0----0--0-0--0-0-0-0--|




Riff 1
Guitar 1 (Acoustic)
e|--0----0-0----0--0-0--0-0-0-0--|
B|--0----0-0----0--0-0--0-0-0-0--|
G|--0----0-0----0--0-0--0-0-0-0--|
D|--2----2-2----2--2-2--2-2-2-2--|
A|--2----2-2----2--2-2--2-2-2-2--|
E|--0----0-0----0--0-0--0-0-0-0--|
   "Father time..."
 
Guitar 2 (Slight distortion)
e|----------------------------------------------|
B|----------------------------------------------|
G|----------------------------------------------|
D|----------------------------------------------|
A|-10/12--10-10--------9h10-/12--10-10~~--10-10-|
E|------------0-------------------------------0-|
   "Father time..."
e|---------------------------------------------|
B|---------------------------------------------|
G|---------------------------------------------|
D|---------------------------------------------|
A|-(10)/12--10-10----10--10-10--9h10-9~--\7-7~-|
E|--------------0-----0---0--0------------0-0--|
   "...winding down..."
e|------------------------------------------------|
B|------------------------------------------------|
G|------------------------------------------------|
D|------------------------------------------------|
A|-----/12--10-10~----10-/12--10-9/10~~--(10)\7\2-|
E|-0-7--------------------------------------------|
   "Seconds drift..."
e|-------------------------------------------|
B|-------------------------------------------|
G|-------------------------------------------|
D|-------------------------------------------|
A|-2/7-/12--10-10~----9h10-9-\7-7~~----(7)\2-|
E|----------------------------0-0------------|
   "...The clock just..."





Riff 2
Guitar 1 (Acoustic)
e|--------------------------------|
B|--------------------------------|
G|--5--5-5-5--5-5--x--4-4--4--x-x-|
D|--5--5-5-5--5-5--x--4-4--4--x-x-|
A|--3--3-3-3--3-3--x--2-2--2--x-x-|
E|--------------------------------|
   "You were once..."
e|---------------------------------|
B|---------------------------------|
G|--5--5-5-5--5-5--x--4-4----------|
D|--5--5-5-5--5-5--x--4-4----------|
A|--3--3-3-3--3-3--x--2-2--2-0-----|
E|-----------------------------3-2-|
   "Now I know..."
 
Guitar 2 (12 string acoustic)
e|--------------------------------|
B|--------------------------------|
G|------5-------5--x--4-4--4--x-x-|
D|----5-------5----x--4-4--4--x-x-|
A|--3--------------x--2-2--2--x-x-|
E|--------------------------------|
 
e|---------------------------------|
B|---------------------------------|
G|------5-------5--x--4-4----------|
D|----5-------5----x--4-4----------|
A|--3--------------x--2-2--2-0-----|
E|-----------------------------3-2-|
 


Guitar 3 (Slight distortion)
e|---------------------------------|
B|---------------------------------|
G|--5--------5---------4---4--4--4-|
D|--5--------5---------x---x--x--x-|
A|--3--------3----4/6--6---6--6--6-|
E|---------------------------------|
 
e|---------------------------------|
B|-----------5---------------------|
G|--5--------5----5----------------|
D|--x--------x----x-------9--------|
A|--7--------7----7--7/9--9-----9\-|
E|---------------------------------|
 
 

Riff 3
Guitar 1 & 2 (Acoustic & 12 string acoustic)
e|------------------------------0--|
B|----------------------------0----|
G|--------------------------0------|
D|------7-----5-----7-----5--------|
A|----7-----7-----7-----7----------|
E|--0-----0-----0-----0------------|
 
e|------------------------------0--|
B|----------------------------0----|
G|--------------------------0------|
D|------7-----5-----7-----5--------|
A|----7-----7-----7-----7----------|
E|--0-----0-----0-----0------------|



Riff 4
Guitar 1 & 3 (Acoustic & 12 string acoustic)
e|-----------------------------------|
B|--------------------------------0--|
G|--------0-------0-------0-----0----|
D|------2-------4-------5-----2------|
A|----2-------4-------5--------------|
E|--0-------0-------0-------0--------|
                 "Time taking time..."
e|-----------------------------------|
B|--------0-------0-------0----------|
G|------0-------0-------0------------|
D|----2-------2-------1--------------|
A|--3-------0-------2----------------|
E|--------------------------3---2----|
                 "It's taking mine..."

Тональность:

Это должно быть в ТОП-листе! - Топ-лист композиций



Назад
Рекомендуем посмотреть другие песни исполнителя «Megadeth»:

  • Комменты Fb ()
  • Комменты ВК



Добавить в Избранное Браузера
Сохранить здесь Очистить


x

0


+
-

+
-

-

Авторизация





Зарегистрироваться

M

Дата и время

  • 04:45:59
     

Социальные ссылки


Наши приложения

  • Muzbank App Play Market
  • Muzbank Amazon App