MUZBANK


МУЗЫКАЛЬНО-ИНФОРМАЦИОННЫЙ БАНК





MMellencamp John Cougar • Your Life Is Now (аккорды и текст - chords & lyrics)


424

Print

Видео «Your Life Is Now (Mellencamp John Cougar)»

Видео клипы к песне подбираются автоматически сайтом youtube. Возможны некоторые несоответствия клипов песне.

↑ Спрятать рекламу ↑






 


Your Life Is Now
Written by John Mellencamp & George M Greene
Transcribed By Ty Sadorsky sadorsky@shaw.ca


[Intro] [Guitar 1 Acoustic] Play 2x
e||------------------|-----------------|------------------|--------------3--|
B||------------------|-----------------|------------------|--------------3--|
G||------------------|------^--0-0-----|------------------|-----0-----0-----|
D||----0-(2)-/-4---2-|-(2)-0-3-----3-0-|----0-(2)-/-4--2--|-(2)----3--------|
A||----2-(3)-/-5---3-|-(3)-------------|----2-(3)-/-5--3--|-(3)-------------|
E||-3----------------|-----------------|-3----------------|-----------------|
   G                   C                D                  D
[Verse] 
e||------------------|-----------------|------------------|-----------------|
B||------------------|-----------------|---3------3-------|---3----3-3---0--|
G||-(0)--------------|-----------------|---2------2-------|---2----2-2---1--|
D||-(0)--------------|--2------2-------|------------------|-----------------|
A||------------------|--3------3-------|------------------|-----------------|
E||-(3)--------------|-----------------|------------------|-----------------|

 1.  See  the  moon        roll across the  stars

   G                   C                 D                  D 
e||------------------|-----------------|------------------|-----------------|
B||------------------|-----------------|---3------3-------|------3------0---|
G||-(0)--------------|-----------------|---2------2-------|--2-----2----1---|
D||-(0)--------------|--2------2---0---|------------------|----0------------|
A||------------------|--3------3---1---|------------------|-----------------|
E||-(3)--------------|-----------------|------------------|-----------------|

    See the seasons     turn like a     heart

   G                   C                 D                  D
e||------------------|-----------------|------------------|-----------------|
B||------------------|-----------------|---3------3--3----|-----------------|
G||-(0)--------------|-----------------|---2------2----2--|---(2)-----------|
D||-(0)--------------|--2------2---0---|------------------|-----------------|
A||------------------|--3------3---1---|------------------|-----------------|
E||-(3)--------------|-----------------|------------------|-----------------|

  Your fathers days are  lost to   you                          This is your

 
e||---------3---2----|-----------------|-------2 

Тональность:

Это должно быть в ТОП-листе! - Топ-лист композиций



Назад
Рекомендуем посмотреть другие песни исполнителя «Mellencamp John Cougar»:

  • Комменты Fb ()
  • Комменты ВК



Добавить в Избранное Браузера
Сохранить здесь Очистить


x

0


+
-

+
-

-

Авторизация





Зарегистрироваться

M

Дата и время

  • 16:59:19
     

Социальные ссылки


Наши приложения

  • Muzbank App Play Market
  • Muzbank Amazon App