MUZBANK


МУЗЫКАЛЬНО-ИНФОРМАЦИОННЫЙ БАНК





MMeshuggah • Paralyzing Ignorance (аккорды и текст - chords & lyrics)


252

Print

Видео «Paralyzing Ignorance (Meshuggah)»

Видео клипы к песне подбираются автоматически сайтом youtube. Возможны некоторые несоответствия клипов песне.

↑ Спрятать рекламу ↑






 


Artist: Meshuggah
Song: Paralyzing Ignorance
Album: Contradictions Collapse
Tabbed By: Jan Paolo CRUZ_Iligan_philippines

TUNE DOWN HALF A STEP

naay feedback sa gitara (19 seconds man tingali)
Importante ang palm mute sa E na String...
RIFF A

G--2----------------------------------------------------11-----------------------10-----|
D--2------5-4-------2--------2-2-4-----5-------5----11---------2------------10----------|
A--0------5-4-------2--------2-2-4-----5-------5-----9---------2--------------8---------|
E----------3-2-------0--------0-0-2-----3-------3---------------0--------00-------------|

RIFF B

D-3--3----3-3-3----3----3-3---|
A-3--3----3-3-3----3----3-3---|
E-1--1----1-1-1----1----1-1---|

RIFF C

D-2------2-------2----2-2-2--2---------|
A-2------2-------2----2-2-2--2---------|
E-0----0-0----0-0----0-0-0--0----00----|

RIFF D

D-3------3-------3-----3-3-3----3--------3----|
A-3------3-------3-----3-3-3----3--------3----|
E-1----1-1----1-1-----1-1-1----1----11-1 

Тональность:

Это должно быть в ТОП-листе! - Топ-лист композиций



Назад
Рекомендуем посмотреть другие песни исполнителя «Meshuggah»:

  • Комменты Fb ()
  • Комменты ВК



Добавить в Избранное Браузера
Сохранить здесь Очистить


x

0


+
-

+
-

-

Авторизация





Зарегистрироваться

M

Дата и время

  • 06:18:41
     

Социальные ссылки


Наши приложения

  • Muzbank App Play Market
  • Muzbank Amazon App