MUZBANK


МУЗЫКАЛЬНО-ИНФОРМАЦИОННЫЙ БАНК





MMest • Chelsea (аккорды и текст - chords & lyrics)


380

Print

Видео «Chelsea (Mest)»

Видео клипы к песне подбираются автоматически сайтом youtube. Возможны некоторые несоответствия клипов песне.

↑ Спрятать рекламу ↑






 


Mest- Chelsea
Tabbed by Winnie Chan 

Intro:
e----------------------------------
b----------------------------------
g---------------4----4----4--------
d----2----4----4----4----4---------
a---2----4----2----1---------------
E--0----2---------------4----------  2x

e-----------------------------------------------------
b-----------------------------------------------------
g-----------------------4-----------------------------
d----4--------2----4----4-(8x)--4-------x-------------
a---4--------2----4-----2-------4-(4x)--x-(6x)--------
E--2--------0----2--------------2-------x-------------

Verse 1: 
e------------------------------------------------------------
b------------------------------------------------------------
g--(4)x-x-x--4---(4)x-x-x--4---------------------------------
d--(4)x-x-x--4---(4)x-x-x--4---(6)x-x-x--6---(6)x-x-x--6-----
a--(2)x-x-x--2---(1)x-x-x--1---(6)x-x-x--6---(6)x-x-x--6-----
E------------------------------(4)x-x-x--4---(4)x-x-x--4-----

e------------------------------------------------------------
b------------------------------------------------------------
g------------------------------------------------------------
d--(2)x-x-x--2---(2)x-x-x--2---(4)x-x-x--4---(4)x-x-x--4-----
a--(2)x-x-x--2---(2)x-x-x--2---(4)x-x-x--4---(4)x-x-x--4-----
E--(0)x-x-x--0---(0)x-x-x--0---(2)x-x-x--2---(2)x-x-x--2-----  4x

Chorus 1:
e----------------------------------------------------
b----------------------------------------------------
g----------------------4---------4-------------------
d--2---------4---------4-(4x)----4-(4x)----6---------
a--2-(8x)----2-(8x)----2---------1---------6-(8x)----
E--0---------2-----------------------------4---------  2x

e----------------------------------------------------
b----------------------------------------------------
g-----------------------------4----------------------
d 

Тональность:

Это должно быть в ТОП-листе! - Топ-лист композиций



Назад
Рекомендуем посмотреть другие песни исполнителя «Mest»:

  • Комменты Fb ()
  • Комменты ВК



Добавить в Избранное Браузера
Сохранить здесь Очистить


x

0


+
-

+
-

-

Авторизация





Зарегистрироваться

M

Дата и время

  • 14:13:30
     

Социальные ссылки


Наши приложения

  • Muzbank App Play Market
  • Muzbank Amazon App