MUZBANK


МУЗЫКАЛЬНО-ИНФОРМАЦИОННЫЙ БАНК





MMest • Rooftops (аккорды и текст - chords & lyrics)


638

Print

Видео «Rooftops (Mest)»

Видео клипы к песне подбираются автоматически сайтом youtube. Возможны некоторые несоответствия клипов песне.

↑ Спрятать рекламу ↑






 


hi again. ok this song was very frustrating to tab out. but it was worth it
because this song is one of the best on the new album. im 99.9% sure this is
correct. Email me if you have questions or comments or just want to thank me :)
lol jk...iBLINKEDndMESTup@aol.com

PM = palm mute



intro

E--7-7-5-4------0-2-----0----------
B-------------4-----2-4------------
G----------------------------------
D----------------------------------
A----------------------------------
E----------------------------------     2x

Verse 1

E------------------------------------------------
B------------------------------------------------
G--9---9---9----------------------9--------------
D--9---9---9---9------------------9--7--9--------
A--7---7---7---9------------------7--7--9--------
E--------------7---------------------5--7--------
  PM   PM				   

Тональность:

Это должно быть в ТОП-листе! - Топ-лист композиций



Назад
Рекомендуем посмотреть другие песни исполнителя «Mest»:

  • Комменты Fb ()
  • Комменты ВК



Добавить в Избранное Браузера
Сохранить здесь Очистить


x

0


+
-

+
-

-

Авторизация





Зарегистрироваться

M

Дата и время

  • 14:52:21
     

Социальные ссылки


Наши приложения

  • Muzbank App Play Market
  • Muzbank Amazon App