MUZBANK


МУЗЫКАЛЬНО-ИНФОРМАЦИОННЫЙ БАНК





MMetallica • Aint my bitch (аккорды и текст - chords & lyrics)


658

Print

Видео «Aint my bitch (Metallica)»

Видео клипы к песне подбираются автоматически сайтом youtube. Возможны некоторые несоответствия клипов песне.

↑ Спрятать рекламу ↑





             Opening Riff      Main Riff (riff 1)
e|-------------------------------------------------------------|
B|-------------------------------------------------------------|
G|-------------------------------------------------------------|
D|----------------------------------------------5--------------|
A|-5-7----5-----5--6--7--7--7--7----5--7--7--7-----7--7--5--7--|
E|-0-0-0--3-----0--0--0--0--0--0----0--0--0--0--------0--0--0--|
          pm
        end of Riff 1     Fill 1 (play 3 times)|then play this |
e|---------------------------------------------|---------------|
B|----------------------------------------1/4--|---------------|
G|-----------------------------------------^---|---------------|
D|-----------------------------5-----7-----5---|--------5-----5|
A|-7--7--7---5--7-----5--5--7-----7-----7-----7|--5--7-----7---|
E|-0--0--0---0--0--0--3------------------------|---------------|
                     pm
       Riff 2
e|-------------------------------------------------------------|
B|-------------------------------------------------------------|
G|-----------------------------5-------------------------------|
D|5--6--7--7--7--7--7--5--7--7---7--7--5--7--7--7--7--5--7-----|
A|0--0--0--0--0--0--0--0--0--0---0--0--0--0--0--0--0--0--0--0-5|
E|---------------------------------------------------------pm-3|

e|-------------------------------------------------------------|
B|-------------------------------------------------------------|
G|-------------------------------------------------------------|
D|--2----------------------------------------------------------|
A|--2---------------------------2-2-2-2-2-2-2-2-2-2-2-2-2-2-2-2|
E|--0---------------------------0-0-0-0-0-0-0-0-0-0-0-0-0-0-0-0|
You've arrived,but now it's time to kiss your ass goodbye!

     Припев: Riff
e|--------------------------------------------------------0---0|
B|------------------------------------------------------0---0--|
G|-4-2------------------------------------------------4---2----|
D|-4-2-5----------------------------------------------4---2----|
A|-2-0-5-5-4-3----------------------------------------2---0----|
E|-----3-3-2-1-0000-3p000-00-3p000-3p000-00-3p000-3p0----------|
               pm...........................
     ... ain't my bitch!           Solo's rhythm part

e|----0-----------|-------------------------------|------------|
B|--0-------------|-------------------------------|------------|
G|----------------|--------------2-----4-----2----|------2---2-|
D|5-------------2-|--------2-----2-----4-----2--4-|-2----2---2-|
A|5----5--4--3--2-|--------2--4-----4-----4-----4-|-2--4---4---|
E|3----3--2--1--0-|-------------------------------|------------|
       pm.....               repeat this part 3 times then this

Now change all the 2s to 4s and 4s to 6s for the rythm part
   of the solo.

Solo:w/slide on pinky  (Transcribed by:Jeff Jacobson)
E|-------------------------------------------------------------|
B|--------------~~~~~-----------11-(11)--(11)⁄-/11--12--13--/14|
G|-/11-11⁄9-----11----(11)⁄9/11----(11)--(11)⁄-----------------|
D|-/11------11-------------------------------------------------|
A|-------------------------------------------------------------|
E|-------------------------------------------------------------|

E|------------14--|
B|--14⁄12/14------|
G|----------------| 5 раз
D|----------------|
A|----------------|
E|----------------|
             ~~~~~               ~~~ ~~~~   ~~~~ ~~~  ~~~ ~~
E|--14----14/17-(17)⁄------16----16----------16-----16-----/19-|
B|--------14/----------/16----16-----16---16----16-----16⁄-----|
G|-------------------------------------------------------------|
D|-------------------------------------------------------------|
A|-------------------------------------------------------------|
E|-------------------------------------------------------------|
                                              ~~~~
E|-(19)⁄--------~~~~-------------------------------11/14-(14)⁄-|
B|--19⁄--------/12----(12)---(12)⁄--/7⁄5-9⁄7-12⁄11-------------|
G|--------/9⁄--------------------------------------------------|
D|-------------------------------------------------------------|
A|-------------------------------------------------------------|
E|-------------------------------------------------------------|
                                             ~~~~~~~~~
E|----------------11/14-14⁄/19⁄-/19--(19)-------/19⁄-/12⁄------|
B|-/7⁄5-9⁄7-12⁄11------------------------------------------/12⁄|
G|-------------------------------------------------------------|
D|-------------------------------------------------------------|
A|-------------------------------------------------------------|
E|-------------------------------------------------------------|

E|-------------------------------------------------------------|
B|-7--(7)/9--------(9)-------(9)------(9)----------------------|
G|-7--(7)/9--------(9)-------(9)------(9)----------------------|
D|-------------------------------------------------------------|
A|-------------------------------------------------------------|
E|-------------------------------------------------------------|

Extra Riff:
E|-------------------------------------------------------------|
B|-------------1/2----------Full-------------------------------|
G|---------------^-----------^----^--------------------------~~|
D|-----5---7----5-------5-7-7--7-5-------5---7---5-------5---5-|
A|-5-7---7---7----7-5-7------------7-5-7---7---7---7-5-7---7---|
E|-------------------------------------------------------------|

Ending Riff:Guitar1:      Guitar2:
E|-----------------------|-------------------------------------|
B|.---------------------.|.------------------------------------|
G|--4------2-------------|-------------------------------------|
D|--4------2------5----2-|--/9--9⁄7----7⁄5----5⁄2--2/----------|
A|.-2------0------5----2.|.------------------------------------|
E|----------------3----0-|-------------------------------------|


Ending Riff:
E|-------------------------------------------------------------|
B|-------------------------------------------------------------|
G|-------------------------------------------------------------|
D|---5---5--5--4--3--2--5--4--3--2--5--4--3---2--5--4--3-------|
A|---5---5--5--4--3--2--5--4--3--2--5--4--3---2--5--4--3-------|
E|---3---3--3--2--1--0--3--2--1--0--3--2--1---0--3--2--1-------|

(Repeat Beginning Riff at end)

Well that's pretty much the whole song.

AIN'T MY BITCH
(Hetfield/Ulrich)

Out of my way
Out of my day
Out of your mind and into mine
It's no more
It's not born
Into your step but out of time

It's strong
What's wrong
I've already heard this song before
You're right but now it's time to kiss your ass good-bye

Dragging me down
While you were round
So useless
It ain't my fault
It ain't my call
It ain't my bitch
Ain't my bitch

Down on the sun
Down on your fun
Down and out where the hell you've been
Damn it all down
Damn it unbound
Damn it all down ta hell again

Stand tall
They fall
Never even meant it all before
You're right but now it's time to kiss your ass good-bye

Dragging me down
While you were round
So useless
It ain't my fault
It ain't my call
It ain't my bitch

Out of my way

Out of my way

Out of my day
Out of your mind and into mine
It's no more
It's not born
Into your step but out of time

It's strong
What's wrong
I've already heard this song before
You're right but now it's time to kiss your ass good-bye
And now it's time to kiss your ass good-bye

Dragging me down
While you were round
So useless
It ain't my fault
It ain't my call
It ain't my bitch

No way but down
While you were round
No foolin'
It ain't my smile
It ain't my style
It ain't my bitch

Ain't mine
Ain't mine
Your kind
Your stepin' out of time

Dragging me down
While you were round
No foolin'
It ain't my fault
It ain't my call
It ain't my bitch
Ain't my

Тональность:

Это должно быть в ТОП-листе! - Топ-лист композиций



Назад
Рекомендуем посмотреть другие песни исполнителя «Metallica»:

  • Комменты Fb ()
  • Комменты ВК



Добавить в Избранное Браузера
Сохранить здесь Очистить


x

0


+
-

+
-

-

Авторизация





Зарегистрироваться

M

Дата и время

  • 01:20:24
     

Социальные ссылки


Наши приложения

  • Muzbank App Play Market
  • Muzbank Amazon App