MUZBANK


МУЗЫКАЛЬНО-ИНФОРМАЦИОННЫЙ БАНК





MMetallica • Astronomy (аккорды и текст - chords & lyrics)


1242

Print

Видео «Astronomy (Metallica)»

Видео клипы к песне подбираются автоматически сайтом youtube. Возможны некоторые несоответствия клипов песне.

↑ Спрятать рекламу ↑






1)
Eb|-0-0-0-0-0-------|
Bb|-0-0-0-0-0-0-----|
Gb|-0-0-0-0-0---2-0-|
Db|-2---2---2-------|
Ab|-2---------------|
Eb|-0---------------|
2)
Eb|-0--2--0--2--0-|
Bb|-0--3--1--4--0-|
Gb|-0--2--0--4--0-|
Db|-2--0--2--4--2-|
Ab|-2-----3--2----|
Eb|-0-------------|
Clock strikes twelve
3)
Eb|-0--3--0--2-|
Bb|-1--3--1--4-|
Gb|-0--0--0--4-|
Db|-2--0--2--4-|
Ab|-3--2--3--2-|
Eb|----3-------|
Like something on a folding chair?
4a) James
Eb|------------------------------------------------------------|
Bb|------------------------------------------------------------|
Gb|------------------------------------------------------------|
Db|-9-7----7-------9-7----7-------9-7----7-------9-7----7------|
Ab|-----10---10-9~~----10---10-7~~----10---10-9~~----10---10-7-|
Eb|------------------------------------------------------------|
4b) Kirk
Eb|------------------------------------------------------------|
Bb|-5-----------------------------5----------------------------|
Gb|---7-5-7-5-5h7~~5-4----5----5~~--7-5-7-5-5h7~~5-4----5~~7~~-|
Db|--------------------7----7------------------------7---------|
Ab|------------------------------------------------------------|
Eb|------------------------------------------------------------|
5)
Gb|-9------9-----9---5-5~-----7--7-7---9-9-|
Db|-9------9-----9---5-5~-----7--7-7---9-9-|
Ab|-7------7-----7---3-3~-----5--5-5---7-7-|
Eb|-0--0-0-0-0-0-0-0------0-0----------0-0-|
pm.. ... . ...
"Call me casanova"
6)
Gb|-7-5-7--7-5-7--7-5-7-|
Db|-7-5-7--7-5-7--7-5-7-|
Ab|-5-3-5--5-3-5--5-3-5-|
Eb|---------------------|
"Never warms"
7)
Eb|19-17--17---------------------------------------------------|
Bb|-----20--20-17--12-10----10---------------------------------|
Gb|----------------------12----12-9----------------------------|
Db|----------------------------------9-7----7------------------|
Ab|--------------------------------------10---10-7--2-0---0----|
Eb|-----------------------------------------------------3---3-0|
after never warms part
8a) Kirk
Eb|15-----12----------------------------12-14-12-14-15-17-19-17|
Bb|--13-15-----10-12----10-12~-12-13-15------------------------|
Gb|---------12-------12----------------------------------------|
Db|------------------------------------------------------------|
Ab|------------------------------------------------------------|
Eb|------------------------------------------------------------|
8b) James *****************************
Eb|-15---------------------------------------------------------|
Bb|----------12------------------------------------------------|
Gb|----12-14-------11-12-------9~------------------------------|
Db|-------------14-------10--9---------------------------------|
Ab|------------------------------7-7-6-6-5-5-4-3-2-2-3-3-4-5-6-|
Eb|------------------------------------------------------------|
*= similar to artificial harmonics, rest finger above the
string while picking and sliding down the neck before going
into riff 5 pre solo




The clock strikes twelve and moondrops burst
Out at you from their hiding place?
Like acid and oil on a madman's face
His reasons tend to fly away

Like lesser birds on the four winds, yeah
Like silver scrapes in May
Now the sands become a crust
And most of you have gone away...
Yea, gone away

Ah, come Susie dear, let's take a walk
Just out there upon the beach
I know you'll soon be married
And you'll want to know where winds come from

Well, it's never said at all
On the map that Carrie reads
Behind the clock back there you know
At the four winds bar, mm, yeah

Yeah
Hey!
Hey!
Hey!
Hey!
Four winds at the four winds bar
Two doors locked, ten windows barred
One door left to take you in
The other one just mirrors it
Hey!
Hey! Yeah!
Hey! Yeah!
Hey!

Ooh, in hellish glare and inference
The other one's a duplicate
The queenly flux, eternal light
Or the light that never warms
Yes, the light that never, never warms
Yes, the light that never, never warms
Never warms, never warms

The clock strikes twelve and moondrops burst
Out at you from their hiding place?
Miss Carrie nurse and Susie dear
Would find themselves at four winds bar

It's the nexus of the crisis
And the origin of storms
Just the place to hopelessly
Encounter time and then came me

Hey!
Hey!
Hey!
Hey!

Call me Desdenova, eternal light
These gravely digs of mine
Will surely prove a sight
And don't forget my dog, fixed and consequent

Astronomy - a star
Astronomy - a star
Astronomy (astronomy) - a star, yeah
Astronomy - a star

Astronomy


(Originally recorded by Blue Oyster Cult)

Тональность:

Это должно быть в ТОП-листе! - Топ-лист композиций



Назад
Рекомендуем посмотреть другие песни исполнителя «Metallica»:

  • Комменты Fb ()
  • Комменты ВК



Добавить в Избранное Браузера
Сохранить здесь Очистить


x

0


+
-

+
-

-

Авторизация





Зарегистрироваться

M

Дата и время

  • 22:56:06
     

Социальные ссылки


Наши приложения

  • Muzbank App Play Market
  • Muzbank Amazon App