MUZBANK


МУЗЫКАЛЬНО-ИНФОРМАЦИОННЫЙ БАНК





MMetallica • Crash Course In Brain Surgery (аккорды и текст - chords & lyrics)


506

Print

Видео «Crash Course In Brain Surgery (Metallica)»

Видео клипы к песне подбираются автоматически сайтом youtube. Возможны некоторые несоответствия клипов песне.

↑ Спрятать рекламу ↑






Intro
E|---------|--------------------------|-----------------------|
B|---------|--------------------------|-----------------------|
G|---------|--------------------------|-----------------------|
D|---------|--------------------------|-----------------------|
A|---------|--------------------3--4--|--5--------------------|
E|---------|--0--1--2--5--6--7--------|-----5--6--7--5--6--7--|

E|------------------------|----------------------|
B|------------------------|----------------------|
G|------------------------|-------------------2--|
D|------------------------|-------------------2--|
A|-------------------3--4-|-5-----------------0--|
E|-0--1--2--5--6--7-------|----5--6--7--5--6-----|

                                                   (x4)
E|---------------||-------------------------------------|
B|---------------||-------------------------------------|
G|---------------||*-----------------------------------*|
D|---------------||*--h--------------------------------*|
A|---------------||--/2--------2--------2-----------2---|
E|---------------||---2/-------2--------2-----------2---|

E|-----------------|-----------------------|
B|-----------------|-----------------------|
G|-----------------|-----------------------|
D|--2--0-----------|-----------------------|
A|-----------2--0--|------~~~-----0--1-----|
E|-----------------|--5--2--------0--1-----|

                                    (x4)
E||--------------------------------------||-----------------|
B||--------------------------------------||-----------------|
G||*------------------------------------*||-----------------|
D||*--h---------------------------------*||--2--0-----------|
A||--/2--------2--------2------------2---||-----------2--0--|
E||---2/-------2--------2------------2---||-----------------|

E|------------------|----------------------------------|
B|------------------|----------------------------------|
G|------------------|----------------------------------|
D|------------------|----------------------------------|
A|-----~~~--------0-|-1--------------------------------|
E|-5--2-----------0-|-1-----------------------x--x--17-|

                                (x4)
E||----------------------------------||
B||----------------------------------||
G||*--------------------------------*||
D||*--h-----------------------------*||
A||--/2--------2--------2--------2---||
E||---2/-------2--------2--------2---||

              Start of verses 1 & 2 (see below)
E|----------||------------------------------------|
B|----------||------------------------------------|
G|----------||*-----------------------------------|
D|----------||*--h--------------------------------|
A|----------||--/2------------2--------2--------2-|
E|----------||---2/-----------2--------2--------2-|

E|-------------------------|-------------------------|
B|-------------------------|-------------------------|
G|-------------------------|-------------------------|
D|--h----------------------|--h----------------------|
A|-/2------2------2------2-|-/2------2------2------2-|
E|--2/-----2------2------2-|--2/-----2------2------2-|

E|-------------------------|-------------------------|
B|-------------------------|-------------------------|
G|-------------------------|-------------------------|
D|--h----------------------|--h----------------------|
A|-/2------2------2------2-|-/2------2------2------2-|
E|--2/-----2------2------2-|--2/-----2------2------2-|

E|-------------------------|-------------------------|
B|-------------------------|-------------------------|
G|-------------------------|-------------------------|
D|--h----------------------|--h----------------------|
A|-/2------2------2------2-|-/2------2------2------2-|
E|--2/-----2------2------2-|--2/-----2------2------2-|

E|-------------------------|-------------------------|
B|-------------------------|-------------------------|
G|-------------------------|-------------------------|
D|--h----------------------|--h----------------------|
A|-/2------2------2------2-|-/2------2------2------2-|
E|--2/-----2------2------2-|--2/-----2------2------2-|

E|-------------------------|-------------------------|
B|-------------------------|-------------------------|
G|-------------------------|-------------------------|
D|--h----------------------|--h----------------------|
A|-/2------2------2------2-|-/2------2------2------2-|
E|--2/-----2------2------2-|--2/-----2------2------2-|

E|--------------------------------|
B|--------------------------------|
G|--------------------------------|
D|--h-----------------------------|
A|-/2--------2--------2--------2--|
E|--2/-------2--------2--------2--|

E|-------------------------------------|
B|-------------------------------------|
G|-------------------------------------|
D|-----h-------------------------------|
A|---3-/-5--------5--------5--------5--|
E|---3-/-5--------5--------5--------5--|

E|----------------------------|--------------------------|
B|----------------------------|--------------------------|
G|----------------------------|--------------------------|
D|---h------------------------|---h----------------------|
A|-3-/-5------5------5------5-|-3-/-5------5-----5-----5-|
E|-3-/-5------5------5------5-|-3-/-5------5-----5-----5-|

E|--------|------|---------------------------------------|
B|--------|------|---------------------------------------|
G|--------|------|---------------------------------------|
D|--------|------|---------------------------------------|
A|--3--0--|------|---------------------------------------|
E|--3--0--|--12--|--12---12--------12--12--12--12-----12-|

E|-------------------------|-----------------------------|
B|-------------------------|-----------------------------|
G|-------------------------|-----------------------------|
D|--h----------------------|--h--------------------------|
A|-/2------2------2------2-|-/2---------2------2------2--|
E|--2/-----2------2------2-|--2/--------2------2------2--|

E|-------------------------|-----------------------------||
B|-------------------------|-----------------------------||
G|-------------------------|----------------------------*||
D|--h----------------------|--h-------------------------*||
A|-/2------2------2------2-|-/2------2--------2------2---||
E|--2/-----2------2------2-|--2/-----2--------2------2---||

 Interlude
E|-----------------------|-----------------------|
B|-----------------------|-----------------------|
G|-----------------------|-----------------------|
D|-----2--0--------------|-----------------------|
A|--------------2--0-----|---------~~~-----0--1--|
E|-----------------------|-----5--2--------0--1--|

                                    (x4)
E||--------------------------------------|
B||--------------------------------------|
G||*------------------------------------*|
D||*--h---------------------------------*|
A||--/2------------2--------2--------2---|
E||---2/-----------2--------2--------2---|

E|---------------------|------------|---|---|
B|---------------------|------------|---|---|
G|---------------------|------------|---|---|
D|-2-----0-------------|------------|---|---|
A|-------------2-----0-|--------~~~-|-0-|-1-|
E|---------------------|-5-----2----|-0-|-1-|

E|----|-----|
B|----|-----|
G|----|-----|
D|----|-----|
A|--2-|--2--|
E|--2-|--2--|

E|-----------|
B|-----------|
G|-----------|
D|-----------|
A|--0-----2--|
E|--0-----2--|

E|--------|------|
B|--------|------|
G|--------|------|
D|--------|------|
A|--2--2--|--2/--|
E|--2--2--|--2/--|

 Guitar Solo
E|----------------------------|----------------------------|
B|----------------------------|----------------------------|
G|----------------------------|----------------------------|
D|---h------------------------|---h------------------------|
A|-3-/-5------5------5------5-|-3-/-5------5------5------5-|
E|-3-/-5------5------5------5-|-3-/-5------5------5------5-|

E|----------------------------|----------------------------|
B|----------------------------|----------------------------|
G|----------------------------|----------------------------|
D|---h------------------------|---h------------------------|
A|-3-/-5------5------5------5-|-3-/-5------5------5------5-|
E|-3-/-5------5------5------5-|-3-/-5------5------5------5-|

E|----------------------------|----------------------------|
B|----------------------------|----------------------------|
G|----------------------------|----------------------------|
D|---h------------------------|---h------------------------|
A|-3-/-5------5------5------5-|-3-/-5------5------5------5-|
E|-3-/-5------5------5------5-|-3-/-5------5------5------5-|

E|----------------------------|----------------------------|
B|----------------------------|----------------------------|
G|----------------------------|----------------------------|
D|---h------------------------|---h------------------------|
A|-3-/-5------5------5------5-|-3-/-5------5------5------5-|
E|-3-/-5------5------5------5-|-3-/-5------5------5------5-|

E|--------------------|--------------------|
B|--------------------|--------------------|
G|------~~~-----------|--------------------|
D|--5--3---------~~~--|--------------------|
A|-----------5--3-----|------~~~------~~~--|
E|--------------------|--0--5-----0--1-----|

E|-------------------------|-------------------------|
B|-------------------------|-------------------------|
G|-------------------------|-------------------------|
D|--h----------------------|--h----------------------|
A|-/2------2------2------2-|-/2------2------2------2-|
E|--2/-----2------2------2-|--2/-----2------2------2-|

E|-------------------------|-------------------------|
B|-------------------------|-------------------------|
G|-------------------------|-------------------------|
D|--h----------------------|--h----------------------|
A|-/2------2------2------2-|-/2------2------2------2-|
E|--2/-----2------2------2-|--2/-----2------2------2-|

E|-------------------------|-------------------------|
B|-------------------------|-------------------------|
G|-------------------------|-------------------------|
D|--h----------------------|--h----------------------|
A|-/2------2------2------2-|-/2------2------2------2-|
E|--2/-----2------2------2-|--2/-----2------2------2-|

E|-------------------------|-------------------------|
B|-------------------------|-------------------------|
G|-------------------------|-------------------------|
D|--h----------------------|--h----------------------|
A|-/2------2------2------2-|-/2------2------2------2-|
E|--2/-----2------2------2-|--2/-----2------2------2-|

E|---------------|------------------------|
B|---------------|------------------------|
G|---------------|------------------------|
D|-2--0----------|------------------------|
A|----------2--0-|--------~~~~~~--------0-|
E|---------------|-5-----2--------------0-|

  Bass Solo
E||---|
B||---|
G||---|
D||---|
A||-0-|
E||-0-|

E|----------------------|-----------------------|
B|----------------------|-----------------------|
G|----------------------|-----------------------|
D|---------5----------0-|---------5-----------0-|
A|-5---7-------0---2----|-5---7-------0---2-----|
E|----------------------|-----------------------|

 Verse 3
E|-------------------------|--------------------------|
B|-------------------------|--------------------------|
G|-------------------------|--------------------------|
D|--h----------------------|--h-----------------------|
A|-/2------2------2------2-|-/2------2------2------2--|
E|--2/-----2------2------2-|--2/-----2------2------2--|

E|-------------------------|-------------------------|
B|-------------------------|-------------------------|
G|-------------------------|-------------------------|
D|--h----------------------|--h----------------------|
A|-/2------2------2------2-|-/2------2------2------2-|
E|--2/-----2------2------2-|--2/-----2------2------2-|

E|---------------|------------------|
B|---------------|------------------|
G|---------------|------------------|
D|-2--0----------|------------------|
A|----------2--0-|-----~~~----0---1-|
E|---------------|-5--2-------0---1-|

E|-------------------------------|-------------------------|
B|-------------------------------|-------------------------|
G|-------------------------------|-------------------------|
D|--h----------------------------|--h----------------------|
A|-/2--------2--------2--------2-|-/2------2------2------2-|
E|--2/-------2--------2--------2-|--2/-----2------2------2-|

E|-------------------------|--------------------------|
B|-------------------------|--------------------------|
G|-------------------------|--------------------------|
D|----h--------------------|--------------------------|
A|-/2-----2------2------2--|-0--2-----2------2------2-|
E|--2/----2------2------2--|-0--2-----2------2------2-|

E|--------------|-----------|-----|-----|-----------------||
B|--------------|-----------|-----|-----|-----------------||
G|--------------|-----------|-----|-----|-----------------||
D|--2--0--------|------~~~--|-----|-----|-----------------||
A|--------2--0--|--5--2-----|--0--|--1--|--2--2-----------||
E|--------------|-----------|--0--|--1--|--2--2-------(2)-||

Verse 1
Look inside and you will see the words
are cutting deep inside my brain.
Thunder burning, quickly burning.
Knife of words is driv`n me insane.
Insane!
Yeah!

Verse 2
Raven black is on my back.
He showed me how to neutralise the knife
Show to me, in surgery, the art of fighting
words to conquer life.
Conquer life!
Yeah!

Verse 3
Now the wicked lance of fear is drivn` from
my heady mountain brain.
Crash course in brain surgery has stopped
the bloddy knife of words again.
Yeah!	Yeah!	Yeah!

Also when ever you come across Figure
A as depicted below, it should be
replaced with Figure 1A (below)

Figure A
E|-------------------------------|
B|-------------------------------|
G|-------------------------------|
D|----h--------------------------|
A|-/2-------2--------2--------2--|
E|--2/------2--------2--------2--|

Figure 1A
E|----------------------------------|
B|----------------------------------|
G|----------------------------------|
D|---h------------------------------|
A|-0-/-2-------2--------2--------2--|
E|-0-/-2-------2--------2--------2--|

Тональность:

Это должно быть в ТОП-листе! - Топ-лист композиций



Назад
Рекомендуем посмотреть другие песни исполнителя «Metallica»:

  • Комменты Fb ()
  • Комменты ВК



Добавить в Избранное Браузера
Сохранить здесь Очистить


x

0


+
-

+
-

-

Авторизация





Зарегистрироваться

M

Дата и время

  • 13:16:06
     

Социальные ссылки


Наши приложения

  • Muzbank App Play Market
  • Muzbank Amazon App