MUZBANK


МУЗЫКАЛЬНО-ИНФОРМАЦИОННЫЙ БАНК





MMetallica • Creeping Death (аккорды и текст - chords & lyrics)


753

Print

Видео «Creeping Death (Metallica)»

Видео клипы к песне подбираются автоматически сайтом youtube. Возможны некоторые несоответствия клипов песне.

↑ Спрятать рекламу ↑





1a)
D|-----------9------------97-|             |------------|
A|-----------7------------75-| 4times then |-7--5--4--2-|
E|-0-0-0-0-0----0-0-0-0-0----|             |-5--3--2--0-|

1b)
D|------------9------------97-|
A|-----------10-----------109-| (last 2 times on lead guitar)
E|-0-0-0-0-0----0-0-0-0-0-----|

2)
D|-----2-----2---2-----2---2h3p2h3p2p0-|  |-5-7-5-|
A|-----2-----2---2-----2---2h3p2h3p2p0-|  |-3-5-3-|
E|-0-0---0-0---0---0-0---0-------------|  |-------|
                    right before the verse then back into first
Slaves, Hebrews born..                part

3)
D|---------------------------------------|
A|-------5--------5----------------------|
E|-0--0--3--0--0--3--0--0--2-2-2-2-2-2-2-|
400 years

4)
D|-2---5-7---10-9---5-7---10-12-9----5-7--10-9--5-7---------|
A|-2---3-5---8--7---3-5---8--10-7----3-5--8--7--3-5---5-7-5-|
E|-0--------------------------------------------------3-5-3-|
So let it be written                       I?m creeping death

5)
G|-----------------------------------------2-----2---2---2-2-5-|
D|-----2-----2---2-----2---2h3p2h3p2p0-----2-----2---2---2-2-5-|
A|-----2-----2---2-----2---2h3p2h3p2p0-0-0---0-0---0---0---0-3-|
E|-0-0---0-0---0---0-0---0-------------------------------------|
solo riff (first part, then into riffs 3 and 4)

6)
D|-9---------10-7-9---------12-10-9---------10-7-9-|
A|-7---------8--5-7---------10-8--7---------8--5-7-|
E|---0-0-0-0--------0-0-0-0---------0-0-0-0--------|
Die by my hand

7a) ^V        ^V         ^V         ^V
e--------------------------------------------|
B--15-13-12---12----13---15-13-12---12----13-|
G----------------14--------------------14----|
D--------------------------------------------|
A--------------------------------------------|
E--------------------------------------------|

7b) ^V    ^V      ^V      ^V
e|-------------------------------------------------------------|
B|-10-8-7-7---8-10-8-7--7---8----------------------------------|
G|----------9-------------9------------------------------------|
D|-----------------------------9-7-5-4-5-4-2-5-9-7-5-4-5-4-2-5-|
A|-----------------------------7-5-3-2-3-2-0-3-7-5-3-2-3-2-0-3-|
E|-------------------------------------------------------------|
right before end

solo

E|-------------------------------------------------|
B|--12--13--15--17p-15--13--14--15--17--19p-17--15-|
G|-------------------------------------------------|
D|-------------------------------------------------|
A|-------------------------------------------------|
E|-------------------------------------------------|

E|---------------------------------19h-20h-22-|-22b--22b--22b-|
B|-15-17-19-17-19--20--19--20--22-------------|---------------|
G|--------------------------------------------|---------------|
D|--------------------------------------------|---------------|
A|--------------------------------------------|---------------|
E|--------------------------------------------|---------------|

E|-22r----22b--22b-22b-22-19-|
B|---------------------------|
G|---------------------------|
D|---------------------------|
A|---------------------------|
E|---------------------------|

E|--22-20-1917-21-19-1715-19-17-1514-17-15-1412-|
B|----------------------------------------------|
G|----------------------------------------------|
D|----------------------------------------------|
A|----------------------------------------------|
E|----------------------------------------------|

E|-15p14-------------------------------|-----------------------|
B|-------17p15-15p14p12h15-1210-10-----|-10-15--15-12----------|
G|---------------------------------12b-|----14b-14-12----12-14-|
D|-------------------------------------|--------------14-------|
A|-------------------------------------|-----------------------|
E|-------------------------------------|-----------------------|

E|----------------------|--------------------------------------|
B|----------------------|-12-15p12-15p12--------12-15p12-15p12-|
G|-14r-14-12b----12-14b-|----------------14b-16----------------|
D|------------14--------|--------------------------------------|
A|----------------------|--------------------------------------|
E|----------------------|--------------------------------------|

E|-------------------------------12-|
B|-----12--15p12-15p12-15b---15-----|
G|-14b------------------------------|
D|----------------------------------|
A|----------------------------------|
E|----------------------------------|

E|-15p-12------12------------------------------14-|
B|---------15------15--12--15p-12------12---------|
G|---------------------------------14------14-----|
D|------------------------------------------------|
A|------------------------------------------------|
E|------------------------------------------------|

E|-17p-15--14--15p-14------14----------12---------|
B|---------------------17------17p-15------15p-14-|
G|------------------------------------------------|
D|------------------------------------------------|
A|------------------------------------------------|
E|------------------------------------------------|

E|-------------------------------------|-------17--19/-22~-22~-|
B|-15p-14--12--14--12------------------|----18-----------------|
G|---------------------14-12----12-14/-|-19--------------------|
D|---------------------------14--------|-----------------------|
A|-------------------------------------|-----------------------|
E|-------------------------------------|-----------------------|

E|---------12--17p-12----------------12--17p-12--------|
B|-----13--------------13--------13--------------13----|
G|-14---------------------14-14---------------------14-|
D|-----------------------------------------------------|
A|-----------------------------------------------------|
E|-----------------------------------------------------|

E|---------12--17p-12------------------12--17p-12-----|
B|-----13--------------13----------13--------------13-|
G|-14---------------------14-14-14--------------------|
D|----------------------------------------------------|
A|----------------------------------------------------|
E|----------------------------------------------------|

E|-12h15p12------------------------------------|---------------|
B|----------15-12----12-15p-12-----------------|-15---15---15--|
G|----------------14------------14--12------12-|-14b--14b--14b-|
D|--------------------------------------14-----|---------------|
A|---------------------------------------------|---------------|
E|---------------------------------------------|---------------|

E|--------------------------------|
B|--------------------------------|
G|--------------------------------|
D|--------------------------------|
A|-7--7-7-8-8-8-8-9-9-9-9-9-9-9-9-|
E|--------------------------------|

E|----------------------------------------------|
B|----------------------------------------------|
G|----------------------------------------------|
D|----------------------------------------------|
A|-10-9-10-9-10-9-11-10-12-11-12-11-12-11-13-12-|
E|----------------------------------------------|

E|-------------------------------------------------|
B|-------------------------------------------------|
G|-------------------------------------------------|
D|----------------------------------------------11-|
A|-14-13-14-13-14-14-15-15-14-14-15-14-14-14-15----|
E|-------------------------------------------------|

E|--------------------------------------------------------|
B|--------------------------------------------------------|
G|--------------------------------------------------12/14-|
D|-11-12-11-12-11-12-12-12-12-13-12-14-15-15--15-15-------|
A|--------------------------------------------------------|
E|--------------------------------------------------------|

E|-----------------------------------------14-|
B|------------------14-17--14------14--17-----|
G|-17--14--13-14-16------------16-------------|
D|--------------------------------------------|
A|--------------------------------------------|
E|--------------------------------------------|

E|-17p14----------------------------------|
B|-------17-14-----14--17p14--------------|
G|-------------16------------16-14-----14-|
D|---------------------------------16-----|
A|----------------------------------------|
E|----------------------------------------|

E|------------------------------------------------|
B|------------------------------------------------|
G|-16p-14------14---------------------------------|
D|---------16------16p-14--16p-14------14---------|
A|---------------------------------16------16--14-|
E|------------------------------------------------|

E|----------------------------------------|--------------------|
B|----------------------------------------|--------------------|
G|----------------------------------------|---------11--12--14-|
D|---------------------------------12--12-|-14--14-------------|
A|-16p-14--12--14p-12------12--14---------|--------------------|
E|---------------------14-----------------|--------------------|

E|------------------|--------------------------|
B|------------------|--------------------------|
G|-12----12h-14p-12-|---------------11--12--14-|
D|------------------|-12--------14-------------|
A|------------------|--------------------------|
E|------------------|--------------------------|

E|----------------|-12--------12/-14--15--17-|-15----14-----|
B|-12----13----15-|--------------------------|-----------17-|
G|----------------|--------------------------|--------------|
D|----------------|--------------------------|--------------|
A|----------------|--------------------------|--------------|
E|----------------|--------------------------|--------------|

E|-17-17-17-17-17-17-17-17-17-17-17-17-17--19----20-|
B|--------------------------------------------------|
G|--------------------------------------------------|
D|--------------------------------------------------|
A|--------------------------------------------------|
E|--------------------------------------------------|

E|19-17-15-14h-15|-15p-14p-12-15p-14p-12-15p-14p-12-15p-14p-12-|
B|---------------|---------------------------------------------|
G|---------------|---------------------------------------------|
D|---------------|---------------------------------------------|
A|---------------|---------------------------------------------|
E|---------------|---------------------------------------------|

E|-15p-14p-12--15p-14p-12--15p-14p-12--15p-12/-14-|
B|------------------------------------------------|
G|------------------------------------------------|
D|------------------------------------------------|
A|------------------------------------------------|
E|------------------------------------------------|

E|-17p-15p-14--17p-15p-14--17p-15p-14--17p-15p-14-|
B|------------------------------------------------|
G|------------------------------------------------|
D|------------------------------------------------|
A|------------------------------------------------|
E|------------------------------------------------|

E|-17p-15p-14--17p-15p-14--17p-15p-14--17--15--15-|
B|------------------------------------------------|
G|------------------------------------------------|
D|------------------------------------------------|
A|------------------------------------------------|
E|------------------------------------------------|

E|-19p-17p-15--19p-17p-15--19p-17p-15--19--15--16-|
B|------------------------------------------------|
G|------------------------------------------------|
D|------------------------------------------------|
A|------------------------------------------------|
E|------------------------------------------------|

E|-20p-19p-17--20p-19p-17--22p-20p-19--22p-20p-19-|-22b--22b-|
B|------------------------------------------------|----------|
G|------------------------------------------------|----------|
D|------------------------------------------------|----------|
A|------------------------------------------------|----------|
E|------------------------------------------------|----------|

E|-22b-------22b---22b-|-----|
B|---------------------|-----|
G|---------------------|-----|
D|---------------------|--14-|
A|---------------------|--14-|
E|---------------------|--12-|

Bass

   intro
G||--------------------|---------------------|-----------||
D||o-------------------|---------------------|----------o||
A||o-----------------7-|----------------7--5-|----------o||
E||---0--0--0--0--0----|-0--0--0--0--0-------|-----------||

G||-------------------|----------------------|---------------||
D||o------------------|----------------------|--------------o||
A||o----------------7-|----------------7--5--|------5-------o||
E||--0--0--0--0--0----|-0--0--0--0--0--------|---------------||

                                                    play 4x->
G|---------|---|------|-16--17--16-||-------------------------|
D|---------|---|-----|-------------||o------------------------|
A|---------|---|-----|-------------||o------------------------|
E|-5--3--2-|-0-|-----|-------------||---0--0--0--0--0--0--0--0|

G|-------------------------||
D|------------------------o||
A|-------------2--3--2--0-o||
E|-0--0--0--0--------------||

                    play 4x
G||---------------------|-------------------------||
D||o--------------------|------------------------o||
A||o--------------------|------------------------o||
E||---0--0--3--0--0--3--|-0--0--2--2--2--2--2--2--||

G||--------------------------|--------------------------||
D||o-------------------------|-------------------------o||
A||o-------------------------|-------------2--3--2--0--o||
E||---0--0--0--0--0--0--0--0-|-0--0--0--0---------------||

Verses
G||--------------------------|------------------------|
D||o-------------------------|------------------------|
A||o-------------------------|-------------2--3--2--0-|
E||---0--0--0--0--0--0--0--0-|-0--0--0--0-------------|

G|------------------|------------------------|
D|------------------|------------------------|
A|------------------|------------------------|
E|-0--0--3--0--0--3-|-0--0--2--2--2--2--2--2-|

Chorus
G|-------------|---------------|------------------|------------|
D|-------------|---------------|------------------|------------|
A|-------------|----------3--5-|-5--5--5--5--5--5-|------------|
E|-0-0-0-0-0-0-|-0-0-0--0------|------------------|-1--1--1--1-|

G|-------|-------------|------------------|--------------------|
D|-------|-------------|------------------|--------------------|
A|-------|-------------|-------------3--5-|-5--5--5--5--5--5---|
E|-3-3-3-|-0-0-0-0-0-0-|-0--0--0--0-------|--------------------|

G|-------------|-------------|------------------|--------------|
D|-------------|-------------|------------------|--------------|
A|-5-5-5-5-8-8-|-7-7-7-7-7-7-|-7--7--7--7--8--8-|-5--5--5--5-5-|
E|-------------|-------------|------------------|--------------|

G|---|---------|----------------------|------------------------|
D|---|---------|----------------------|------------------------|
A|-5-|-5-2-4---|----------------------|-------------2--3--2--0-|
E|---|-------2-|-0-0-0--0--0--0--0--0-|-0--0--0--0-------------|

G|----------------------|------------------------|-------------|
D|----------------------|------------------------|-------------|
A|----------------------|-------------2--3--2--0-|---7-----7---|
E|-0-0-0--0--0--0--0--0-|-0--0--0--0-------------|-0---0-0---0-|

G|------------------|---------------------|---------------||
D|------------------|---------------------|--------------o||
A|-7--5----7--5--7--|-5--7--5-----4----0--|-2--2--4------o||
E|------------------|---------------------|----------2----||

Bridge
G||--------------|------------|-------------|-----------------||
D||o-------------|------------|-------------|----------------o||
A||o--7--7--7--7-|-8--8--8--5-|-7-----------|----------------o||
E||-0------------|------------|---0-0--0--0-|-3--3--3--1--1---||

Die...           play 4x
G||-----------------|------------|-----------|----------------||
D||o----------------|------------|-----------|---------------o||
A||o-----7--7--7--7-|-8--8--8--5-|-7---------|---------------o||
E||---0-------------|------------|---0-0-0-0-|-3--3--3--1--1--||

G|---|---------------|
D|---|---------------|
A|---|----------5--5-|
E|-0-|-0--1--3-------|

G||-------------------|------------------|---------------------|
D||o----------------2-|------------------|--------------------3|
A||o----------------2-|------------------|--------------------3|
E||---0-0-0-0-0-0-0---|-0--0--0--0--3--2-|-0--0--0--0--0--0--0-|

G|--------------------||
D|-------------------o||
A|-3--3--3--3--5--5--o||
E|--------------------||

Slaves
Hebrews born to serve, to the pharaoh
Heed
To his every word, live in fear
Faith
Of the unknown one, the deliverer
Wait
Something must be done, four hundred years
So let it be written
So let it be done
I?m sent here by the chosen one
So let it be written
So let it be done
To kill the first born pharaoh son
I?m creeping death
Now
Let my people go, land of goshen
Go
I will be with thee, bush of fire
Blood
Running red and strong, down the nil
Plague
Darkness three days long, hail to fire
Die by my hand
I creep across the land
Killing first born man
Die by my hand
I creep across the land
Killing first born man
I
Rule the midnight air the destroyer
Born
I shall soon be there, deadly mass
I
Creep the steps and flood final darkness
Blood
Lambs blood painted door, I shall pass

Тональность:

Это должно быть в ТОП-листе! - Топ-лист композиций



Назад
Рекомендуем посмотреть другие песни исполнителя «Metallica»:

  • Комменты Fb ()
  • Комменты ВК



Добавить в Избранное Браузера
Сохранить здесь Очистить


x

0


+
-

+
-

-

Авторизация





Зарегистрироваться

M

Дата и время

  • 23:23:30
     

Социальные ссылки


Наши приложения

  • Muzbank App Play Market
  • Muzbank Amazon App