MUZBANK


МУЗЫКАЛЬНО-ИНФОРМАЦИОННЫЙ БАНК





MMetallica • Cure (аккорды и текст - chords & lyrics)


645

Print

Видео «Cure (Metallica)»

Видео клипы к песне подбираются автоматически сайтом youtube. Возможны некоторые несоответствия клипов песне.

↑ Спрятать рекламу ↑






Verse 1: The first chord starts on an upbeat, play first time
         only.
         Repeat 10 times.

Eb|------||-------------------------|-------------------------||
Bb|------||-------------------------|-------------------------||
Gb|------||-------------------------|-------------------------|o
Db|------||-------------------------|-------------------------|o
Ab|--(2)-||-----2--------2----------|----5~----------5~----2--||
Eb|--(0)-||-----0--3~----0-----x--5-|-6--------5--6--------0--||

Pre-Chorus 1:

Eb|--------------------------|--------------------------|
Bb|--------------------------|--------------------------|
Gb|--------------------------|-----------3--3-----------|
Db|--3-----------------------|--3--3--3--3--3-----------|
Ab|--3--3--3--3--3--3--3--3--|--3--3--3--3--3-----3--2--|
Eb|--1--1--1--1--1--1--1--1--|--1--1--1--1--1-----1--0--|

Eb|--------------------------|--------------------------|
Bb|--------------------------|--------------------------|
Gb|--------------------------|--------------------------|
Db|--------------------------|--------------------------|
Ab|-----0--1-----3--2-----1--|--0--1--0-----3--2-----2--|
Eb|--------------1--0--------|-----------0--1--0-----0--|

Eb|--------------------------|-------------------------------|
Bb|--------------------------|-------------------------------|
Gb|--------------------------|--------------15--15-----------|
Db|--3-----------------------|-/15--15--15--15--15-----------|
Ab|--3--3--3--3--3--3--3--3--|-/15--15--15--15--15-----3--2--|
Eb|--1--1--1--1--1--1--1--1--|-/13--13--13--13--13-----1--0--|

Eb|--------------------------|--------------------------|
Bb|--------------------------|--------------------------|
Gb|--------------------------|--------------------------|
Db|--------------------------|--------------------------|
Ab|-----0--1-----3--2-----1--|--0--1--0-----3--2-----2--|
Eb|--------------1--0--------|-----------0--1--0-----0--|

Eb|--------------------------|--------------------------||
Bb|--------------------------|--------------------------||
Gb|--------------------------|--------------------------||
Db|--------------------------|--------------------------||
Ab|-----0--1-----3--2-----1--|--0--1--0-----3--2-----2--||
Eb|--------------1--0--------|-----------0--1--0-----0--||

Bridge:
Eb|--------------------------|---------------------------|
Bb|--------------------------|---------------------------|
Gb|--------------------------|---------------------------|
Db|--------------------------|---------------------------|
Ab|-----2-----2-----2--x-x-x-|-----2-----2-----2--x-x-x--|
Eb|--3--0-/6--0-----0--------|--3--0-/6--0-----0---------|

Eb|------------------------|-------------------------|--------||
Bb|------------------------|-------------------------|--------||
Gb|------------------------|-------------------------|--------||
Db|------------------------|-------------------------|--------||
Ab|----2-----2----2--x-x-x-|----2-----7--6--5~-------|--------||
Eb|-3--0-/6--0----0--------|-3--0-/6--------------7--|--6--5--||

Verse 2: Play first chord first time only, this time it
         lands on the down beat?! Repeat 8 times.
Eb|-------------------------|-------------------------||
Bb|-------------------------|-------------------------||
Gb|-------------------------|-------------------------|o
Db|-------------------------|-------------------------|o
Ab|-(2)-2--------2----------|----5~----------5~----2--||
Eb|-(0)-0--3~----0-----x--5-|-6--------5--6--------0--||

Pre-Chorus 2:
Eb|--------------------------|--------------------------|
Bb|--------------------------|--------------------------|
Gb|--------------------------|-----------3--3-----------|
Db|--3-----------------------|--3--3--3--3--3-----------|
Ab|--3--3--3--3--3--3--3--3--|--3--3--3--3--3-----3--2--|
Eb|--1--1--1--1--1--1--1--1--|--1--1--1--1--1-----1--0--|

Eb|--------------------------|--------------------------|
Bb|--------------------------|--------------------------|
Gb|--------------------------|--------------------------|
Db|--------------------------|--------------------------|
Ab|-----0--1-----3--2-----1--|--0--1--0-----3--2-----2--|
Eb|--------------1--0--------|-----------0--1--0-----0--|

Eb|--------------------------|-------------------------------|
Bb|--------------------------|-------------------------------|
Gb|--------------------------|--------------15--15-----------|
Db|--3-----------------------|-/15--15--15--15--15-----------|
Ab|--3--3--3--3--3--3--3--3--|-/15--15--15--15--15-----3--2--|
Eb|--1--1--1--1--1--1--1--1--|-/13--13--13--13--13-----1--0--|

Eb|--------------------------|--------------------------|
Bb|--------------------------|--------------------------|
Gb|--------------------------|--------------------------|
Db|--------------------------|--------------------------|
Ab|-----0--1-----3--2-----1--|--0--1--0-----3--2-----2--|
Eb|--------------1--0--------|-----------0--1--0-----0--|

Eb|--------------------------|--------------------------||
Bb|--------------------------|--------------------------||
Gb|--------------------------|--------------------------||
Db|--------------------------|--------------------------||
Ab|-----0--1-----3--2-----1--|--0--1--0-----3--2-----2--||
Eb|--------------1--0--------|-----------0--1--0-----0--||

Bridge:
Eb|--------------------------|---------------------------|
Bb|--------------------------|---------------------------|
Gb|--------------------------|---------------------------|
Db|--------------------------|---------------------------|
Ab|-----2-----2-----2--x-x-x-|-----2-----2-----2--x-x-x--|
Eb|--3--0-/6--0-----0--------|--3--0-/6--0-----0---------|

Eb|-------------------------|-------------------------|-------||
Bb|-------------------------|-------------------------|-------||
Gb|-------------------------|-------------------------|-------||
Db|-------------------------|-------------------------|-------||
Ab|----2-----2-----2--x-x-x-|-----2-----7--6--5~------|-------||
Eb|-3--0-/6--0-----0--------|--3--0-/6--------------7-|-6--5--||

Chorus 1: Finally!

Eb|--------------------------|---------------------------|
Bb|--------------------------|---------------------------|
Gb|--------------------------|---------------------------|
Db|--------------------------|---------------------------|
Ab|-----2-----2--2--2--2-----|-----7--6--5~--------------|
Eb|-/6--0-----0--0--0--0-----|-/6--------------7--6--5---|

Eb|--------------------------|---------------------------|
Bb|--------------------------|---------------------------|
Gb|--------------------------|---------------------------|
Db|--------------------------|---------------------------|
Ab|-----2-----2--2--2--2-----|-----7--6--5~--------------|
Eb|-/6--0-----0--0--0--0-----|-/6--------------7--6--5---|

Eb|--------------------------|---------------------------|
Bb|--------------------------|---------------------------|
Gb|--------------------------|---------------------------|
Db|--------------------------|---------------------------|
Ab|-----2-----2--2--2--2-----|-----7--6--5~--------------|
Eb|-/6--0-----0--0--0--0-----|-/6--------------7--6--5---|

Eb|--------------------------|---------------------------|
Bb|--------------------------|---------------------------|
Gb|--------------------------|---------------------------|
Db|--------------------------|---------------------------|
Ab|-----2-----2--2--2--2-----|-----7-----------7---------|
Eb|-/6--0-----0--0--0--0-----|-/6-----6--5~-------6--5---|

Eb|--------------------------|---------------------------|
Bb|--------------------------|---------------------------|
Gb|--------------------------|---------------------------|
Db|--------------------------|-----2---------------------|
Ab|-----7-----------7--------|-----2---------------------|
Eb|-/6-----6--5~-------6--5--|--3--0---------------------|

Eb|--------------------------|--------------------------||
Bb|--------------------------|--------------------------||
Gb|--------------------------|--------------------------||
Db|--------------------------|--------------------------||
Ab|--------------------------|-----7-----------7--------||
Eb|--------------------------|-/6-----6--5~-------6--5--||

Solo : Play first chord first time only, this time it
       lands on the down beat?! Sound familar? ;)
Eb|-------------------------|-------------------------||
Bb|-------------------------|-------------------------||
Gb|-------------------------|-------------------------|o
Db|-------------------------|-------------------------|o
Ab|-(2)-2--------2----------|----5~----------5~----2--||
Eb|-(0)-0--3~----0-----x--5-|-6--------5--6--------0--||

Eb|-------------------------|--------------------------|
Bb|-------------------------|--------------------------|
Gb|-------------------------|--------------------------|
Db|-------------------------|--------------------------|
Ab|--2--2--------2--2-------|--2--2--------2--2--------|
Eb|--0--0--3~----0--0--3~---|--0--0--3~----0--0--3~----|

Eb|-------------------------|--------------------------|
Bb|-------------------------|--------------------------|
Gb|-------------------------|--------------------------|
Db|-------------------------|--------------------------|
Ab|--2--2--------2----------|----5~----------5~----2---|
Eb|--0--0--3~----0-----x--5-|-6--------5--6--------0---|

Eb|--------------------------|-------------------------|
Bb|--------------------------|-------------------------|
Gb|--------------------------|--------------15--15--15-|
Db|--3-----------------------|-/15--15--15--15--15--15-|
Ab|--3--3--3--3--3--3--3--3--|-/15--15--15--15--15--15-|
Eb|--1--1--1--1--1--1--1--1--|-/13--13--13--13--13--13-|

Eb|--------------------------||
Bb|--------------------------||
Gb|--------------------------||
Db|--------------------------||
Ab|-----7-----------7--------||
Eb|-/6-----6--5~-------6--5--||

Chorus 2:

Eb|--------------------------|---------------------------|
Bb|--------------------------|---------------------------|
Gb|--------------------------|---------------------------|
Db|--------------------------|---------------------------|
Ab|-----2-----2--2--2--2-----|-----7--6--5~--------------|
Eb|-/6--0-----0--0--0--0-----|-/6--------------7--6--5---|

Eb|--------------------------|---------------------------|
Bb|--------------------------|---------------------------|
Gb|--------------------------|---------------------------|
Db|--------------------------|---------------------------|
Ab|-----2-----2--2--2--2-----|-----7--6--5~--------------|
Eb|-/6--0-----0--0--0--0-----|-/6--------------7--6--5---|

Eb|--------------------------|---------------------------|
Bb|--------------------------|---------------------------|
Gb|--------------------------|---------------------------|
Db|--------------------------|---------------------------|
Ab|-----2-----2--2--2--2-----|-----7--6--5~--------------|
Eb|-/6--0-----0--0--0--0-----|-/6--------------7--6--5---|

Eb|--------------------------|---------------------------|
Bb|--------------------------|---------------------------|
Gb|--------------------------|---------------------------|
Db|--------------------------|---------------------------|
Ab|-----2-----2--2--2--2-----|-----7-----------7---------|
Eb|-/6--0-----0--0--0--0-----|-/6-----6--5~-------6--5---|

                              Hold this chord for the
                              next 4 measures.
Eb|--------------------------|---------------------------|
Bb|--------------------------|---------------------------|
Gb|--------------------------|---------------------------|
Db|--------------------------|-----9---------------------|
Ab|-----7-----------7--------|-----7---------------------|
Eb|-/6-----6--5~-------6--5--|--3--0---------------------|

                              Rotate volume knob rhythmically.
Eb|--------------------------|--------------------------|
Bb|--------------------------|--------------------------|
Gb|--------------------------|--------------------------|
Db|--------------------------|--------------------------|
Ab|--------------------------|--------------------------|
Eb|--------------------------|--------------------------|

Interlude: "I do believe..."
Eb|--------------------------|---------------------------|
Bb|--------------------------|---------------------------|
Gb|--------------------------|---------------------------|
Db|--------------------------|--8-7~--------------7/87/8-|
Ab|-----------------2-----2--|--8-7~--------------7/87/8-|
Eb|-----------------0--3--0--|--6-5~--------------5/65/6-|

Eb|--------------------------|---------------------------|
Bb|--------------------------|---------------------------|
Gb|--------------------------|---------------------------|
Db|-/7-----9-----------------|--8-7~--------------7/87/8-|
Ab|-/7-----9--------2-----2--|--8-7~--------------7/87/8-|
Eb|-/5-----6--------0--3--0--|--6-5~--------------5/65/6-|

Eb|--------------------------|---------------------------|
Bb|--------------------------|---------------------------|
Gb|--------------------------|---------------------------|
Db|-/7-----9-----------------|--8-7~--------------7/87/8-|
Ab|-/7-----9--------2-----2--|--8-7~--------------7/87/8-|
Eb|-/5-----6--------0--3--0--|--6-5~--------------5/65/6-|

Eb|--------------------------|---------------------------|
Bb|--------------------------|---------------------------|
Gb|--------------------------|---------------------------|
Db|-/7-----9-----------------|--8-7~--------------7/87/8-|
Ab|-/7-----9--------2-----2--|--8-7~--------------7/87/8-|
Eb|-/5-----6--------0--3--0--|--6-5~--------------5/65/6-|

Eb|--------------------------|--------------------------|
Bb|--------------------------|--------------------------|
Gb|--------------------------|--------------------------|
Db|--7b8---------------------|--------------------------|
Ab|--7b8---------------------|-----------------7~-------|
Eb|--5b6------------------0--|--3---5b6~-------------0--|

Eb|--------------------------|--------------------------|
Bb|--------------------------|--------------------------|
Gb|--------------------------|--------------------------|
Db|--------------------------|--------------------------|
Ab|-----------------5~-------|-----------------4~-------|
Eb|--3---5b6~-------------0--|--3---5b6~-------------0--|

Eb|--------------------------|--------------------------|
Bb|--------------------------|--------------------------|
Gb|--------------------------|--------------------------|
Db|--------------------------|--------------------------|
Ab|-----------------2--------|-----------------7~-------|
Eb|--3---5b6-----3--0-----0--|--3---5b6~-------------0--|

Eb|--------------------------|--------------------------|
Bb|--------------------------|--------------------------|
Gb|--------------------------|--------------------------|
Db|--------------------------|--------------------------|
Ab|-----------------5~-------|-----------------4~-------|
Eb|--3---5b6~-------------0--|--3---5b6~-------------0--|

Eb|--------------------------|--------------------------|
Bb|--------------------------|--------------------------|
Gb|--------------------------|--------------------------|
Db|--------------------------|--------------------------|
Ab|-----------------2--------|-----------7--------------|
Eb|--3---5b6-----3--0-----0--|--3--5--6-----6--5~----0--|

Eb|--------------------------|--------------------------|
Bb|--------------------------|--------------------------|
Gb|--------------------------|--------------------------|
Db|--------------------------|--------------------------|
Ab|-----------5--------------|-----------4--------------|
Eb|--3--5--6-----6--5~----0--|--3--5--6-----6--5-----0--|

Eb|--------------------------|--------||
Bb|--------------------------|--------||
Gb|--------------------------|--------||
Db|--------------------------|--------||
Ab|-----------------2-----2--|-----2--||
Eb|--3---5b6-----3--0-----0--|--3--0--||

Chorus 3:
Eb|--------------------------|---------------------------|
Bb|--------------------------|---------------------------|
Gb|--------------------------|---------------------------|
Db|--------------------------|---------------------------|
Ab|-----2-----2--2--2--2-----|-----7--6--5~--------------|
Eb|-/6--0-----0--0--0--0-----|-/6--------------7--6--5---|

Eb|--------------------------|---------------------------|
Bb|--------------------------|---------------------------|
Gb|--------------------------|---------------------------|
Db|--------------------------|---------------------------|
Ab|-----2-----2--2--2--2-----|-----7--6--5~--------------|
Eb|-/6--0-----0--0--0--0-----|-/6--------------7--6--5---|

Eb|--------------------------|---------------------------|
Bb|--------------------------|---------------------------|
Gb|--------------------------|---------------------------|
Db|--------------------------|---------------------------|
Ab|-----2-----2--2--2--2-----|-----7--6--5~--------------|
Eb|-/6--0-----0--0--0--0-----|-/6--------------7--6--5---|

Eb|--------------------------|---------------------------|
Bb|--------------------------|---------------------------|
Gb|--------------------------|---------------------------|
Db|--------------------------|---------------------------|
Ab|-----2-----2--2--2--2-----|-----7--6--5~--------------|
Eb|-/6--0-----0--0--0--0-----|-/6--------------7--6--5---|

Eb|--------------------------|---------------------------|
Bb|--------------------------|---------------------------|
Gb|--------------------------|---------------------------|
Db|--------------------------|---------------------------|
Ab|-----2-----2--2--2--2-----|-----7--6--5~--------------|
Eb|-/6--0-----0--0--0--0-----|-/6--------------7--6--5---|

Eb|--------------------------|---------------------------|
Bb|--------------------------|---------------------------|
Gb|--------------------------|---------------------------|
Db|--------------------------|---------------------------|
Ab|-----2-----2--2--2--2-----|-----7--6--5~--------------|
Eb|-/6--0-----0--0--0--0-----|-/6--------------7--6--5---|

Eb|--------------------------|---------------------------|
Bb|--------------------------|---------------------------|
Gb|--------------------------|---------------------------|
Db|--------------------------|---------------------------|
Ab|-----2-----2--2--2--2-----|-----7--6--5~--------------|
Eb|-/6--0-----0--0--0--0-----|-/6--------------7--6--5---|

Eb|--------------------------|---------------------------|
Bb|--------------------------|---------------------------|
Gb|--------------------------|---------------------------|
Db|--------------------------|---------------------------|
Ab|-----2-----2--2--2--2-----|-----7-----------7---------|
Eb|-/6--0-----0--0--0--0-----|-/6-----6--5~-------6--5---|

                              Hold this chord for the
                              next 4 measures.
Eb|--------------------------|-------|
Bb|--------------------------|-------|
Gb|--------------------------|-------|
Db|--------------------------|-----2-|
Ab|-----7-----------7--------|-----2-|
Eb|-/6-----6--5~-------6--5--|--3--0-|

Eb|--------------------------|---------------------------|
Bb|--------------------------|---------------------------|
Gb|--------------------------|---------------------------|
Db|--------------------------|---------------------------|
Ab|--------------------------|-----7-----------7---------|
Eb|--------------------------|-/6-----6--5~-------6--5---|

Eb|--------------------------|-----------------||
Bb|--------------------------|-----------------||
Gb|--------------------------|-----------------||
Db|-----9-----------9--------|-----------------||
Ab|--8-----8--7~-------8--7--|--2-----------2--||
Eb|--------------------------|--0-----3~----0--||


(Spoken)
The man takes another bullet
He keeps them all within
He must seek no matter how it hurts
So don`t fool again

He thinks the answer is cold and in his hand
He takes his medicine
The man takes another bullet
He`s been fooled again

Uncross your arms
Take and throw them to the cure, say...
I do believe

Uncross your arms now
Take them to I say...
I do believe
Yeah, I do believe

The lie is tempted and she follows
Again she hits him in
She must believe to feel the hollow
She`s been fooled again

Uncross your arms
Take and throw them to the cure, say...
I do believe

Uncross your arms now
Take them to I say...
I do believe
Oh yeah, I do believe

Betting on the cure
It must get better than this
Betting on the cure
Yeah everyone`s gotta to have the sickness
Cause everyone seems to need the cure
Precious cure

Betting on the cure
Cause it must get better than this
Betting on the cure
Yeah everyone`s gotta to have the sickness
Cause everyone seems to need the cure
Precious cure

I do beleive

Betting on the cure
It must get better than this
Need to feel secure
Yeah it`s got to get better than this
It must get better than this
Betting on the cure
Everyone`s gotta to have the sickness
Cause everyone seems to need the cure
I do believe



Тональность:

Это должно быть в ТОП-листе! - Топ-лист композиций



Назад
Рекомендуем посмотреть другие песни исполнителя «Metallica»:

  • Комменты Fb ()
  • Комменты ВК



Добавить в Избранное Браузера
Сохранить здесь Очистить


x

0


+
-

+
-

-

Авторизация





Зарегистрироваться

M

Дата и время

  • 04:37:15
     

Социальные ссылки


Наши приложения

  • Muzbank App Play Market
  • Muzbank Amazon App