MUZBANK


МУЗЫКАЛЬНО-ИНФОРМАЦИОННЫЙ БАНК





MMetallica • Devils Dance (аккорды и текст - chords & lyrics)


564

Print

Видео «Devils Dance (Metallica)»

Видео клипы к песне подбираются автоматически сайтом youtube. Возможны некоторые несоответствия клипов песне.

↑ Спрятать рекламу ↑






F|------------------------------------|
C|------------------------------------|
G|------------------------------------|
D|-6-0---0---0---0-3-0----0-5-3-0-3-5-|

F|----------------------------------|
C|----------------------------------|
G|----------------------------------|
D|-0---0---0---0-3-0----0-5-3-0-3-5-|
intro and similar

F|----------------    --------------------|
C|---------------- 4x --------------------| 2x then back to the
G|----------------    --------------------| first part
D|-0-0-0-0-3-0-0-0    -6-5-3-3-3-3-3-3-3-3|

F|--------------------------------|
C|--------------------------------|
G|--------------------------------|
D|-3-3-3-3-3-3-3--2-2-2-2-2-2-2-2-|
verse (follows guitar)

F|---------------------------------------------|
C|---------------------------------------------|
G|-1-1-1-1-1-0-------------1-1-1-1-1-0---------|
D|-------------0-0-3-3-0-3-------------0-0-3-3-|
chorus(follows guitar)


Yeah
I feel you too
Feel
Those things you do
In your eyes I see a fire that burns to free the you
That`s wanting through
Deep inside you know, seeds I plant will grow

One day you will see
And dare to come down to me
Yeah, c`mon, c`mon, now take the chance
That`s right
Let`s dance


Snake
I am the snake
Tempting
That bite you take
Let me make your mind
Leave yourself behind
...Be not afraid
I got what you need, hunger I will feed


One day you will see
And dare to come down to me
Yeah c`mon, c`mon, now take the chance
hahaa
Come dancccaa!


Yeah, come dancin`


One day you will see
And dare to come down to me
Yeah c`mon, c`mon, now take the chance


Yeah
I feel you too
Feel
Those things you do
In your eyes I see a fire that burns to free the you
That`s wanting through
Deep inside you know, seeds I plant will grow


One day you will see
And dare to come down to me
Yeah c`mon, c`mon now take the chance
That`s right
Let`s dance

Тональность:

Это должно быть в ТОП-листе! - Топ-лист композиций



Назад
Рекомендуем посмотреть другие песни исполнителя «Metallica»:

  • Комменты Fb ()
  • Комменты ВК



Добавить в Избранное Браузера
Сохранить здесь Очистить


x

0


+
-

+
-

-

Авторизация





Зарегистрироваться

M

Дата и время

  • 08:06:21
     

Социальные ссылки


Наши приложения

  • Muzbank App Play Market
  • Muzbank Amazon App