MUZBANK


МУЗЫКАЛЬНО-ИНФОРМАЦИОННЫЙ БАНК





MMetallica • Die Die My Darling (аккорды и текст - chords & lyrics)


1996

Print

Видео «Die Die My Darling (Metallica)»

Видео клипы к песне подбираются автоматически сайтом youtube. Возможны некоторые несоответствия клипов песне.

↑ Спрятать рекламу ↑





Intro:
G|---------------------------------------|PLAY 3 X
D|---------------------------------------|PLAY 3 X
A|-2-2-2-2-2-2-2-2-----------------------|PLAY 3 X
E|------------------3-3-3-3-3--2-2-2-2-2-|PLAY 3 X

FIG B
G|----------------------------------------------------|
D|----------------------------------------------------|
A|---------------------------2-2--2-2-2--2-2-2--2-2-2-|
E|-0-0--0-0-0--0-0-0--0-0-0---------------------------|

G|-------------------------------|PLAY FIG B X1
D|-------------------------------|PLAY FIG B X1
A|-------------------------------|PLAY FIG B X1
E|-0-0--0-0-0--3-3-3-3-3-3-3-3-2-|PLAY FIG B X1

FIG C
G|----------------------------------------------------|PLAY 7 X
D|----------------------------------------------------|PLAY 7 X
A|-2-2--2-2-2--2-2-2--2-2-2--------------5-5-5--4-4-4-|PLAY 7 X
E|---------------------------3-3--3-3-3---------------|PLAY 7 X

REPEAT INTRO - FIG C  NOTE: ONLY PLAY INTRO 2 X
THEN, PLAY INTRO 2X, AND FIG B 1X

G|---------------|
D|---------------|
A|-2-2-2-2-2-2-2-|lET THE LAST -2- RING OUT
E|---------------|



***Bass tab End.


***Next Guitar tabs:

Intro/Chorus Riff
(3 times)
|------------------------------------|
|------------------------------------|
|--4--4--4--4--4--4--4--4------------|
|--4--4--4--4--4--4--4--4--5----4----|
|--2--2--2--2--2--2--2--2--5----4----|
|--------------------------3----2----|
Chorus ending:
|--0~~~~---------------------------------------------------------|
|--0~~~~---------------------------------------------------------|
|--0~~~~--4----------------------------------4-4-4-4-4-4-4-4--4--|
|--2~~~~--4---------------------------4-2~~--2-2-2-2-2-2-2-2--2--|
|--2~~~~--2-2-2-2-2-2-2-2-2-2-2-2-2-2-2-2~~--2-2-2-2-2-2-2-2--2--|
|--0~~~~--------------------------------0~~--0-0-0-0-0-0-0-0--0--|
OR          pm.......................|       pm release.....|
|----------------------------------------------------------------|
|----------------------------------------------------------------|
|--9~~~~--4----------------------------------4-4-4-4-4-4-4-4--4--|
|--9~~~~--4---------------------------4-2~~--2-2-2-2-2-2-2-2--2--|
|--7~~~~--2-2-2-2-2-2-2-2-2-2-2-2-2-2-2-2~~--2-2-2-2-2-2-2-2--2--|
|--0~~~~--------------------------------0~~--0-0-0-0-0-0-0-0--0--|
                                             pm release.....|
 
Verse
(6 times)
|-------------------------------------------------|
|--4----------------------------------------------|
|--4-4-4-4-4-4-4-4-4-4-4-4-4-4-4-4-------7---6----|
|--4-4-4-4-4-4-4-4-4-4-4-4-4-4-4-4-5-----7---6----|
|--2-2-2-2-2-2-2-2-2-2-2-2-2-2-2-2-5-----5---4----|
|----------------------------------3--------------|
|    pm...........................|               |
|-------------------------------------------------|
|-------------------------------------------------|
|--4---4---4---4---4---4---4---4---------7-7-6-6--|
|--4---4---4---4---4---4---4---4---5-----7-7-6-6--|
|--2---2---2---2---2---2---2---2---5-----5-5-4-4--|
|----------------------------------3--------------|
 
Chorus riff (2 times + Chorus ending) 
 
Verse (6 times) 
 
Chorus riff (2 times + Chorus ending) 
 
Hell-ell
|---------------------------------------------------------|
|---------------------------------------------------------|
|--4--4--4--4--4--4--4--4--4--4--4--4--4~~~~~~~~~~~~~~~~--|
|--4--4--4--4--4--4--4--4--4--4--4--4--4~~~~~~~~~~~~~~~~--|
|--2--2--2--2--2--2--2--2--2--2--2--2--2~~~~~~~~~~~~~~~~--|
|---------------------------------------------------------|
|                                                         |
|-------------------------------------------------------14|
|-------------------------------------------12-12-12-12-12|
|--4--4--4--4--4--4--4--4--4--4--4--4--4------------------|
|--4--4--4--4--4--4--4--4--4--4--4--4--4------------------|
|--2--2--2--2--2--2--2--2--2--2--2--2--2------------------|
|---------------------------------------------------------|


Die, die, die my darling
Don't utter a single word
Die, die, die my darling
Just shut your pretty eyes

I'll be seeing you again
I'll be seeing you in Hell

Don't cry to me oh baby
Your future's in an oblong box, yeah
Don't cry to me oh baby
Should have seen it a-comin' on
Don't cry to me oh baby
I don't know it was in your power
Don't cry to me oh baby
Dead-end girl for a dead-end guy
Don't cry to me oh baby
Now your life drains on the floor
Don't cry to me oh baby

Die, die, die my darling
Don't utter a single word
Die, die, die my darling
Just shut your pretty mouth

I'll be seeing you again
I'll be seeing you in Hell

Don't cry to me a baby
Your future is in an oblong box
Don't cry to me oh baby
Should have seen the end a-comin' on, a-comin'
Don't cry to me oh baby
I don't know it was in your power
Don't cry to me oh baby
Dead-end girl for a dead-end guy
Don't cry to me oh baby
Now your life drains on the floor
Don't cry to me oh baby

Die, die, die my darling
Don't utter a single word
Die, die, die my darling
Shut your pretty mouth

I'll be seeing you again
I'll be seeing you in Hell

Don't cry to me oh baby
Die, die, die my darling
Don't cry to me oh baby
Die, die, die my darling
Die, die, die my darling
Die, die, die my darling

Die, die, die, die, die, die....

Тональность:

Это должно быть в ТОП-листе! - Топ-лист композиций



Назад
Рекомендуем посмотреть другие песни исполнителя «Metallica»:

  • Комменты Fb ()
  • Комменты ВК



Добавить в Избранное Браузера
Сохранить здесь Очистить


x

0


+
-

+
-

-

Авторизация





Зарегистрироваться

M

Дата и время

  • 09:16:05
     

Социальные ссылки


Наши приложения

  • Muzbank App Play Market
  • Muzbank Amazon App