MUZBANK


МУЗЫКАЛЬНО-ИНФОРМАЦИОННЫЙ БАНК





MMetallica • Dirty Window (аккорды и текст - chords & lyrics)


514

Print

Видео «Dirty Window (Metallica)»

Видео клипы к песне подбираются автоматически сайтом youtube. Возможны некоторые несоответствия клипов песне.

↑ Спрятать рекламу ↑





Играется вместе с ритмом ударных
(Играть 2 раза)
Eb|----------------------|
Bb|----------------------|
Gb|----------------------|
Db|-x-x-x-x-x--x--x-x--x-|
Ab|-x-x-x-x-x--x--x-x--x-|
Db|-x-x-x-x-x--x--x-x--x-|

(Играть 2 раза)
Eb|--------------------------|-----------------------|
Bb|--------------------------|-----------------------|
Gb|--------------------------|-----------------------|
Db|--x-x-x-x-x--x---x-x--x---|-x-x-x-x-x--x---x-x--x-|
Ab|--x-x-x-x-x--x---x-x--x---|-x-x-x-x-x--x---x-x--x-|
Db|--x-x-x-x-x--x---x-x--x---|-x-x-x-x-x--x---x-x--x-|

Основной риф (Играть 5 раз)
Eb|--------------------------|----------------------|
Bb|--------------------------|----------------------|
Gb|--------------------------|----------------------|
Db|--------------------------|----------------------|
Ab|--------------------------|-------------/5-------|
Db|--0---3---5--0---3---5----|--0---3---5------6--5-|

Eb|--------------------------|------------------------|
Bb|--------------------------|------------------------|
Gb|--------------------------|------------------------|
Db|--3---------------(3)--3--|-/5---------5----5----5-|
Ab|--3---------------(3)--3--|-/5---------5----5----5-|
Db|--3---------------(3)--3--|-/5---------5----5----5-|

Повторить основной риф 4 раза
(вокал появляется на 2-м разе)

Eb|-----------------------|-----------------------|
Bb|-----------------------|-----------------------|
Gb|-----------------------|-----------------------|
Db|--3----------------(3)-|-/5----------------(5)-|
Ab|--3----------------(3)-|-/5----------------(5)-|
Db|--3----------------(3)-|-/5----------------(5)-|
this house is clean baby...

Heavy Palm Mute
(Играть 2 раза)
Eb|----------------------|---------------------|
Bb|----------------------|---------------------|
Gb|----------------------|---------------------|
Db|-0---3---5--0---3---5-|-0---3---5------6--5-|
Ab|-0---3---5--0---3---5-|-0---3---5---5--6--5-|
Db|-0---3---5--0---3---5-|-0---3---5---0--6--5-|

(Играть 3 раза)
Eb|-----------------------|-----------------------|
Bb|-----------------------|-----------------------|
Gb|-----------------------|-----------------------|
Db|-----------------------|-----------------------|
Ab|-----------------------|-----------------------|
Db|-0---3---5--0-x--x-x-x-|-0---3---5---6^6~~~~~~-|
am i who i think i am?...

Eb|-----------------------|---------------------|
Bb|-----------------------|---------------------|
Gb|-----------------------|---------------------|
Db|-3---6---8--3------x-x-|-3---6---8-----------|
Ab|-3---6---8--3------x-x-|-3---6---8--9~~~~~~~-|
Db|-3---6---8--3------x-x-|-3---6---8--9~~~~~~~-|
look out my window...

Eb|--------------|----------------------|
Bb|--------------|----------------------|
Gb|--------------|----------------------|
Db|-3---6---8--3-|-3---6---8--3---6---8-|
Ab|-3---6---8--3-|-3---6---8--3---6---8-|
Db|-3---6---8--3-|-3---6---8--3---6---8-|
...and i slam my gavel down

Основной риф 2X

Light distortion
(Играть 2 раза)
Eb|-----------------------|---------------------|
Bb|-----------------------|---------------------|
Gb|-----------------------|---------------------|
Db|-7 ~~~-----------7---7-|--5 ~~~ ----/8-----7-|
Ab|-----------------8---0-|--3------------------|
Db|-----------------------|---------------------|

Eb|-----------------------|----------------------|
Bb|-----------------------|----------------------|
Gb|-----------------------|----------------------|
Db|-----------------------|----------------------|
Ab|-----------------------|-------------/5-------|
Db|-0---3---5--0---3---5--|--0---3---5------6--5-|
 i?m judge and i?m jury and i?m executioner too...

Heavy Distortion
Eb|---------------|---------------|
Bb|---------------|---------------|
Gb|---------------|---------------|
Db|-0---3---5---0-|-0---3---5---0-|
Ab|-0---3---5---0-|-0---3---5---0-|
Db|-0---3---5---0-|-0---3---5---0-|
        projector!!     protector!!

Eb|-----------------------|---------------|
Bb|-----------------------|---------------|
Gb|-----------------------|---------------|
Db|-0---3---5-------6---5-|-0---3---5---0-|
Ab|-0---3---5---5---6---5-|-0---3---5---0-|
Db|-0---3---5---0---6---5-|-0---3---5---0-|
               rejector!!

Eb|---------------|---------------|
Bb|---------------|---------------|
Gb|---------------|---------------|
Db|-0---3---5---0-|-0---3---5---0-|
Ab|-0---3---5---0-|-0---3---5---0-|
Db|-0---3---5---0-|-0---3---5---0-|

Eb|-----------------------|-----------------------|
Bb|-----------------------|-----------------------|
Gb|-----------------------|-----------------------|
Db|-0---3---5-------6---5-|-0---3---5-------6---5-|
Ab|-0---3---5---5---6---5-|-0---3---5---5---6---5-|
Db|-0---3---5---0---6---5-|-0---3---5---0---6---5-|

Eb|-----------------------|-----------------------|
Bb|-----------------------|-----------------------|
Gb|-----------------------|-----------------------|
Db|-x-x-x-x-x--x---x-x--x-|-x-x-x-x-x--x---x-x--x-|
Ab|-x-x-x-x-x--x---x-x--x-|-x-x-x-x-x--x---x-x--x-|
Db|-x-x-x-x-x--x---x-x--x-|-x-x-x-x-x--x---x-x--x-|

Eb|-----------------------|---------------------|
Bb|-----------------------|---------------------|
Gb|-----------------------|---------------------|
Db|-----------------------|---------------------|
Ab|-----------------------|------------/5-------|
Db|-0---3---5--0---3---5--|-0---3---5------6--5-|

Тональность:

Это должно быть в ТОП-листе! - Топ-лист композиций



Назад
Рекомендуем посмотреть другие песни исполнителя «Metallica»:

  • Комменты Fb ()
  • Комменты ВК



Добавить в Избранное Браузера
Сохранить здесь Очистить


x

0


+
-

+
-

-

Авторизация





Зарегистрироваться

M

Дата и время

  • 23:42:29
     

Социальные ссылки


Наши приложения

  • Muzbank App Play Market
  • Muzbank Amazon App