MUZBANK


МУЗЫКАЛЬНО-ИНФОРМАЦИОННЫЙ БАНК





MMetallica • Don`t Tread On Me (аккорды и текст - chords & lyrics)


465

Print

Видео «Don`t Tread On Me (Metallica)»

Видео клипы к песне подбираются автоматически сайтом youtube. Возможны некоторые несоответствия клипов песне.

↑ Спрятать рекламу ↑






G||------------|-----|-----|----------------|------------------|
D||------------|--%--|--%--|----------------|------------------|
A||------------|-----|-----|-----------2--2-|-----------5--5---|
E||-0-0-0-0--0-|-----|-----|-0-0-0----------|-3-3-3------------|

(6/8)       (12/8)
G|-------|   |-------------|-------------|----------------|
D|-------|   |-------------|-------------|----------------|
A|-3-3-3-|   |-7-----------|-------------|----------------|
E|-------|   |-----0--0--0-|-0--0---0--0-|-0-0-0-----0--0-|

G|----------------|-----|-----|-----|------------------------|
D|----------------|--%--|--%--|--%--|------------------------|
A|----------------|-----|-----|-----|------------------------|
E|-0-0-0-----0--0-|-----|-----|-----|-0-0-0---1-0---1-1/3--1-|

Bass fig.1                                     (end Bass fig.1)
G|---------------------------|--------------------------------|
D|---------------------------|--------------------------------|
A|-------1/2----------1/2----|-------1/2----------------------|
E|-0-0-0------1--0--0------1-|-0-0-0-------1--0----1--1/3---1-|

Play Bass fig.1 (3 times)

1st, 2nd verses
Bass fig.2
G||----------------|----------------|----------------------|
D||o---------------|----------------|----------------------|
A||o---------------|----------------|----------------------|
E||--0-0-0----0--0-|-0-0-0-----1--1-|-2-2-2--1-2-3--3--2-3-|

         (end Bass fig.2)
G|-------------------------||
D|------------------------o||
A|--------------------5---o||
E|-4-4-4--3-4-5---6/7---7--||

"Say don`t tread on me...|
G|-----------------------------|------------------------------||
D|-----------------------------|------------------------------||
A|-----------------------------|------------------------------||
E|-0-0-0-0-1-0-0-0-0-0-0-3-0-0-|-0-0-0-0-5--0--0--6-0-5-0-3-0-||

Bass fig.3
G|--------------------|--------------------|-------------------|
D|--------------------|--------------------|-------------------|
A|--------------------|--------------------|5-5---5---5-5-5-5--|
E|-0-0-1-0-0-0-0-0-0-0|0-0-1-0-0-0--0-2-3-3|----5---5---------5|

           (end bass fig.3)
G|-----------------|---------------------|---------------------|
D|-----------------|---------------------|---------------------|
A|-----------------|---------------------|---------------------|
E|-3-3-0-3-3/4-5-6-|-0-0-1-0-0-0-0-0-0-0-|-0-0-1-0-0-0-0-2-3-3-|

G|-------------------|---------------|-------------------------|
D|-------------------|---------------|-------------------------|
A|5-5---5---5---5-5--|---------------|-------------------------|
E|----5---5---5-----5|3-3-0-3-3-3-3-3|0-0-0-1-0-0-0-0-0-0-3-0-0|

 1. w/ Bass fig.1 (2 times)

2.
G|----------------------------|----||
D|----------------------------|----||
A|-------------------1--------|----||
E|-3--3-3-3--3--3--3-----3--1-|-10-||

Guitar solo

Play Bass fig.1 (4 times)

G|------------------|-------|-------|
D|------------------|-------|-------|
A|------------------|-------|-------|
E|-0-0-0--0-0-0---0-|-0-0-0-|-1---1-|

G|-------------------|----------------------||
D|-------------------|----------------------||
A|-------------------|------------------5---||
E|-2-2-2-----3--3----|-4-4-4-----5--6/7---7-||

G||-----------------------------|------------------------------|
D||-----------------------------|------------------------------|
A||-----------------------------|------------------------------|
E||-0-0-0-0-1-0-0-0-0-0-0-3-0-1-|-0-0-0-0-1-0-0-0-0-0-0--3-0-0-|

G|---------------------------|---------------------------------|
D|---------------------------|---------------------------------|
A|---------------------------|---------------------------------|
E|-0-0-0-0-5-0-0-6-0-0-5-0-0-|-0-0-0-0-1-0-0-0--0-0-0--3--0--0-|

G|--------------------------------------||
D|--------------------------------------||
A|--------------------------------------||
E|-0--0-0-0--1--0--0--0--0-0-0--3--0--0-||

Тональность:

Это должно быть в ТОП-листе! - Топ-лист композиций



Назад
Рекомендуем посмотреть другие песни исполнителя «Metallica»:

  • Комменты Fb ()
  • Комменты ВК



Добавить в Избранное Браузера
Сохранить здесь Очистить


x

0


+
-

+
-

-

Авторизация





Зарегистрироваться

M

Дата и время

  • 15:45:34
     

Социальные ссылки


Наши приложения

  • Muzbank App Play Market
  • Muzbank Amazon App