MUZBANK


МУЗЫКАЛЬНО-ИНФОРМАЦИОННЫЙ БАНК





MMetallica • Eye Of The Beholder (аккорды и текст - chords & lyrics)


454

Print

Видео «Eye Of The Beholder (Metallica)»

Видео клипы к песне подбираются автоматически сайтом youtube. Возможны некоторые несоответствия клипов песне.

↑ Спрятать рекламу ↑






Intro Bass:
   s s s s s s s s  e  e  s s  e
E|-0-0-0-0-0-0-0-0--0--0--0-0--0-|
A|-------------------------------|
D|-------------------------------|
G|-------------------------------|

Verse:
   e  e  s s e  s s s s s s s s  e  e  s s e  s s s s s s s s
E|-3--3--3-3-3--2-2-2-2-2-2-2-2--2--2--2-2-2--0-0-0-0-0-0-0-0-|
A|------------------------------------------------------------|
D|------------------------------------------------------------|
G|------------------------------------------------------------|





Do you see what I see?
Truth is an offense
You silence for your confidence

Do you hear what I hear?
Doors are slamming shut
Limit your imagination, keep you where they must

Do you feel what I feel?
Bittering distress
Who decides what you express?

Do you take what I take?
Endurance is the word
Moving back instead of forward seems to me absurd

Doesn't matter what you see
Or to do with what you read
You can do it your own way
If it's done just how I say

Independence limited
Freedom of choice is made for you my friend
Freedom of speech is words that they will bend
Freedom with their exception

Do you fear what I fear?
Living properly
Truths to you are lies to me

Do you choose what I choose?
More alternatives
Energy derives from both the plus and negative

Do you need what I need?
Boundaries overthrown
Look inside, to each his own

Do you trust what I trust?
Me, myself and I
Penetrate the smoke screen, I see through the selfish lie

Doesn't matter what you see
Or into it what you read
You can do it your own way
If it's done just how I say

Independence limited
Freedom of choice is made for you my friend
Freedom of speech is words that they will bend
Freedom with their exception

Do you know what I know?
Your money and your wealth
You silence just to hear yourself

Do you want what I want?
Desire not a thing
I hunger after independence, lengthen freedom's ring

Doesn't matter what you see
Or into it what you read
You can do it your own way
If it's done just how I say

Independence limited
Freedom of choice is made for you my friend
Freedom of speech is words that they will bend
Freedom no longer frees you

Doesn't matter what you see
Or into it what you read
You can do it your own way
If it's done just how I say





Fade in pp to ff			14 times 
||---------------------------------------------|| 
||---------------------------------------------|| 
||*-------------------------------------------*|| 
||*---------------9---------------------------*|| 
||----------------7----------------------------|| 
||--0---0---0--0--0---0--0--0--0--0--0--0--0---|| 
    PM..........|     PM....................| 
 
 
Two guitars (notated one above the other next 4 bars):				 3 times 
||--------------------------------------------|-----------------------------------------|| 
||--------------------------------------------|-----------------------------------------|| 
||*-------------------------------------------|----------------------------------------*|| 
||*-------------------------------------------|----------------------------------------*|| 
||--2---2---2--2--2---5--5--5--5--5--5--5--5--|--2---2---2--2--2---2--2--2--2--2--2--2--|| 
||--3---3---3--3--3---2--2--2--2--2--2--2--2--|--2---2---2--2--2---0--0--0--0--0--0--0--|| 
    PM..........|     PM.....................................|     PM.................| 
 
 
|--------------------------------------------|-------------------| 
|--------------------------------------------|-------------------| 
|--------------------------------------------|-------------------| 
|--------------------------------------------|-------------------| 
|--2---2---2--2--2---5--5--5--5--5--5--5--5--|--2---2---2--2--2--| 
|--3---3---3--3--3---2--2--2--2--2--2--2--2--|--2---2---2--2--2--| 
   PM..........|     PM.....................................| 
 
				   4 times 
||----------------------------------------||-----------------------------------| 
||----------------------------------------||-----------------------------------| 
||*--------------------------------------*||*----------------------------------| 
||*--------------------------------------*||*-------------------9--9--9---8-~--| 
||-----7----------------------7-----7-----||-----7--------------7--7--7---7-~--| 
||--0--0--0---0---0---0----0--0--0--0--0--||--0--0--0---0---0------------------| 
    PM.......................................................| 
 
 
|-----------------------------------|-----------------------------------| 
|-----------------------------------|-----------------------------------| 
|-----------------------------------|-----------------------------------| 
|--------------------9--9--9---8-~--|--------------------9--9--9---8-~--| 
|-----7--------------7--7--7---7-~--|-----7--------------7--7--7---7-~--| 
|--0--0--0---0---0------------------|--0--0--0---0---0------------------| 
   PM.............|		       PM.............| 
 
 ________________________________________ 
|1.					 | 
|----------------------------------------|| 
|----------------------------------------|| 
|---------------------------------------*|| 
|--------------------8h9p8--------------*|| 
|-----7------------------------7h8p7-----|| 
|--0--0--0---0---0----------0---------0--|| 
   PM.............|	    PM	      PM 
           
 ________________________________________ 
|2. 
|----------------------------------------|----------------------|----------------| 
|----------------------------------------|----------------------|----------------| 
|----------------------------------------|----------------------|----------------| 
|--------------------8h9p8---------------|----------------------|--2--------2----| 
|--7--7--7---7---7-------------7h8p7-----|----------------------|--2--------2----| 
|--0--0--0---0---0----------0---------0--|--6h7p6--0--2h3p2--0--|--0--------0----| 
   PM.............|	    PM	      PM 
 
 
 1st, 3rd verses 
 Rhy Fig 1 
||-------------------------------------------|-------------------------------------------| 
||-------------------------------------------|-------------------------------------------| 
||*---------------------------------------4--|----------------------------------------3--| 
||*---------------------------------------5--|----------------------------------------4--| 
||----------------------------------------5--|----------------------------------------4--| 
||--0--0--0--0--0--0--0--0--3---3---3--3--3--|--2--2--2--2--2--2--2--2--2---2---2--2--2--| 
    PM..................................|	PM..................................| 
 
 
|-------------------------------------------|-------------------------------------------| 
|-------------------------------------------|-------------------------------------------| 
|----------------------------------------4--|----------------------------------------3--| 
|----------------------------------------5--|----------------------------------------4--| 
|----------------------------------------5--|----------------------------------------4--| 
|--0--0--0--0--0--0--0--0--3---3---3--3--3--|--2--2--2--2--2--2--2--2--2---2---2--2--2--| 
   PM..................................|       PM..................................| 
 
 
|-------------------------------------------|-------------------------------------------| 
|-------------------------------------------|-------------------------------------------| 
|----------------------------------------4--|----------------------------------------3--| 
|----------------------------------------5--|----------------------------------------4--| 
|----------------------------------------5--|----------------------------------------4--| 
|--0--0--0--0--0--0--0--0--3---3---3--3--3--|--2--2--2--2--2--2--2--2--2---2---2--2--2--| 
   PM..................................|       PM..................................| 
 
 
				end Rhy Fig1  
|-------------------------------------------|-------------------------------------------| 
|-------------------------------------------|-------------------------------------------| 
|----------------------------------------4--|----------------------------------------3--| 
|----------------------------------------5--|----------------------------------------4--| 
|----------------------------------------5--|----------------------------------------4--| 
|--0--0--0--0--0--0--0--0--3---3---3--3--3--|--2--2--2--2--2--2--2--2--2---2---2--2--2--| 
   PM..................................|       PM..................................| 
 
 
|-------------------------------------------|----------------------------------------------| 
|-------------------------------------------|----------------------------------------------| 
|-------------------------------------------|----------------------------------------------| 
|-------------------------------------------|----------------------------------------------| 
|----------------------------------------7--|-------------------------------------------7--| 
|--0--0--0--0--0--0--0--0--0---0---0--0--0--|--0--0--0--0--0--0--0--0--0---0---0--0--0--0--| 
   PM..................................|       PM.....................................| 
 
 
S/S 
2nd, 4th, 5th verses 
w/ Rhy Fig 1 
 
 
|--------------|----------------------------|-----------------------------| 
|--------------|----------------------------|-----------------------------| 
|--3-----------|----9---9--10---7---7----8--|----9---9---10---7---7----8--| 
|--4-----------|----9---9--10---7---7----8--|----9---9---10---7---7----8--| 
|--4-----------|----7---7---8---5---5----6--|----7---7---8----5---5----6--| 
|--2-----3--2--|--0---0---0---0---0---------|--0---0---0----0---0---------| 
 
 
|----------------------------|----------------------------|----------------------------| 
|----------------------------|----------------------------|----------------------------| 
|----9---9--10---7---7----8--|----9---9--10---7---7----8--|----9---9--10---7---7----8--| 
|----9---9--10---7---7----8--|----9---9--10---7---7----8--|----9---9--10---7---7----8--| 
|----7---7---8---5---5----6--|----7---7---8---5---5----6--|----7---7---8---5---5----6--| 
|--0-7-0-7-0-8-0-5-0-5----6--|--0-7-0-7-0-8-0-5-0-5----6--|--0-7-0-7-0-8-0-5-0-5----6--| 
 
		       ________________________ ________________________ 
		      |1st 

Тональность:

Это должно быть в ТОП-листе! - Топ-лист композиций



Назад
Рекомендуем посмотреть другие песни исполнителя «Metallica»:

  • Комменты Fb ()
  • Комменты ВК



Добавить в Избранное Браузера
Сохранить здесь Очистить


x

0


+
-

+
-

-

Авторизация





Зарегистрироваться

M

Дата и время

  • 23:42:37
     

Социальные ссылки


Наши приложения

  • Muzbank App Play Market
  • Muzbank Amazon App