MUZBANK


МУЗЫКАЛЬНО-ИНФОРМАЦИОННЫЙ БАНК





MMetallica • Fight Fire With Fire (аккорды и текст - chords & lyrics)


395

Print

Видео «Fight Fire With Fire (Metallica)»

Видео клипы к песне подбираются автоматически сайтом youtube. Возможны некоторые несоответствия клипов песне.

↑ Спрятать рекламу ↑






 


h  - hammer on
p  - pull off
sl - slide
b  - bend
.  - palm mute
f  - full note
q  - 1/4 note
e  - 1/8 note
s  - 1/16 note
t  - 1/32 note

CHORDS (EADgbe):
Em=(023000), G5(2)=(3x00xx), C=(x32010), G5=(366xxx),
F#5=(133xxx), E5=(011xxx), A5=(577xxx), E=(0xxxxx)
A=(5xxxxx), G=(3xxxxx), F#=(2xxxxx)


INTRO: (Moderately,82 bpm.)

Gtr.I (Two gtrs. arr. for one)
    G    Am   G/B   C       G/B Am     E              D
E-----|-----__3__----------------2|
B|--0----1----3---|-5-6-5h6p5-3-----|--5-------------|3-----3-----3--3|
G|-------2----4---|-5---------4-5sl4|-----4-----__3__|---2-----2--2---|
D-------7---|--------6--6sl7-|4--------4------|
A---------------------|
E---------------------|

    G    Am   G/B   C       G/B Am    Bm7             A
E-----|-----__3__------------|---0-----------5|
B|--0----1----3---|-5-6-5h6p5-3-----|-0-----2----2---|2--2-----2--5---|
G|--0----2----4---|-5---------4-5sl4|----2-------2---|2-----2---------|
D-------7--------|2---------------|
A-----------|-2--------------|0---------------|
E---------------------|

    G    Am   G/B   C       G/B Am    A               G
E-----|-----__3__-------|-5--------------|3------3-------3|
B|--0----1----3---|-5-6-5h6p5-3-----|-----5----------|---3--------3--3|
G|--0----2----4---|-5---------4-5sl4|---------6--6sl7|4--------4--4---|
D-------7--------|5--------5------|
A---------------------|
E---------------------|

    G    Am   G/B           G/B Am    Em      G5(2)    C
E-----|-----__3__-------|-------3-3---3--|-----7-10-8-----|
B|--0----1----3---|-5-6-5h6p5-3-----|---0-3-3-3-3-3-3|-8-5-5-8--------|
G|--0----2----4---|-5---------4-5sl4|-0-0-4-----4---4|-5-5------9-----|
D-------7---|-2--------------|-5-5-5----------|
A----------------|-------8--7-----|
E---------------------|


Vol.Swell with increasing distortion (C)

Fast Rock (184 bpm.)


Rhy. Fig.1
                G5                F#5              G5      F#5     F#5
E---------------------------------|
B---------------------------------| Play
G||o------------------------------------------------------| Four
D||o------------------------------------------------------| Times
A|--5-----------------4----5-------4-------4--|
E||-0-0-0-0-0-0-3---0-0-0-0-0-0-0-2--|-0-0-0-0-0-0-3---0-0-2---0-0-2--|
    ...........     .............      ...........     ...     ...


                                                       (end Rhy. Fig.1)
               G5                F#5              G5      F#5     F5
E--------------------------------------------||
B--------------------------------------------|| Play
G-------------------------------------------o|| Three
D-------------------------------------------o|| Times
A--5-----------------4----5-------4-------3--||
E|-0-0-0-0-0-0-3---0-0-0-0-0-0-0-2--|-0-0-0-0-0-0-3---0-0-2---0-0-1--||
   ...........     .............      ...........      ...     ...

(Gtr. II:1st time tacet, 2nd time play slashes,
 3rd and 4th times double Gtr. I) 


  Rhy. Fig.2A                                          (end Rhy. Fig.2A)
      NC                     F#5 G5   NC              F#5    F#5
E---------------------------------||
B---------------------------------||
G||o-----------------------------------------------------o||
D||o-----------------------------------------------------o||
A----4---5--------4------4--------||
E||---0--3---5p0-0-0-3---0-0-2---3--|-0---3---5p0-0-0-2------2--------||
      e  e   s s s s e   s s e   e    e   e   s s s s q      q


  Rhy. Fig.2B                                          (end Rhy. Fig.2B)
     NC                     F#5 G5    NC              F#5
E---------------------------------------------||
B------------------------------------r--------||
G------------------------------------e--------||
D------------------------------------s--------||
A---------------4---5---------4------t--------||
E|---0--3---5p0-0-0-3---0-0-2---3---|-0---3---5p0-0-0-2---------------||
     e  e   s s s s e   s s e   e     e   e   s s s s e


%
w/Rhy. Fig.1 (2 times)
VERSE 1:
G5     F#5    G5    F#5    F#5     G5     F#5        G5    F#5   F5
Do__   un  -  to__  oth -  ers__   as__   they 

Тональность:

Это должно быть в ТОП-листе! - Топ-лист композиций



Назад
Рекомендуем посмотреть другие песни исполнителя «Metallica»:

  • Комменты Fb ()
  • Комменты ВК



Добавить в Избранное Браузера
Сохранить здесь Очистить


x

0


+
-

+
-

-

Авторизация





Зарегистрироваться

M

Дата и время

  • 14:10:11
     

Социальные ссылки


Наши приложения

  • Muzbank App Play Market
  • Muzbank Amazon App