MUZBANK


МУЗЫКАЛЬНО-ИНФОРМАЦИОННЫЙ БАНК





MMetallica • For All Intro (аккорды и текст - chords & lyrics)


432

Print

Видео «For All Intro (Metallica)»

Видео клипы к песне подбираются автоматически сайтом youtube. Возможны некоторые несоответствия клипов песне.

↑ Спрятать рекламу ↑





E|-------------------------------------------------------------|
B|-------------------------------------------------------------|
G|-----------/-t------------------------/-t--------------------|
D|-6-7-9---7-6-7-6-4-5-5-4-7-4-2-3-5---3-2-3-2-0-2-2-0-2-0-0-2-|
A|-7-----7---------5-----5---5-3-----3---------2-----2---2-1---|
E|-0-----------------------------------------------------------|

E|-----------|
B|-----------|
G|-----3-----|
D|-2-0-2---2-|
A|---1-----4-|
E|-----------|

Тональность:

Это должно быть в ТОП-листе! - Топ-лист композиций



Назад
Рекомендуем посмотреть другие песни исполнителя «Metallica»:

  • Комменты Fb ()
  • Комменты ВК



Добавить в Избранное Браузера
Сохранить здесь Очистить


x

0


+
-

+
-

-

Авторизация





Зарегистрироваться

M

Дата и время

  • 21:21:24
     

Социальные ссылки


Наши приложения

  • Muzbank App Play Market
  • Muzbank Amazon App